PrimaNota.ru - самый крупный в мире бесплатный архив песенных текстов, аккордов, табулатур и нот


Indiana Bible College - Shelter Me - таба, видео

Регистрация Запомнить меня
Войти через:  Facebook Google Twitter Vk Yandex Mail.ru

Indiana Bible College - Shelter Me - таба, видео

Печатать
Просмотров: 19
"SHELTER ME"
Words and Music by Buddy Miller, Julie Miller, & Steven P. Miller
Artist: Indiana Bible College (IBC) Choir  ● Chorale ● Praise
Year Released: April 15, ℗2010 Voice & Vision
Genres: Christian & Gospel
Album: Anthem to Our God
Track # 6 of 14


INTRO: N.C.[ E - G - A ] Am, N.C.[ E - G - A ] Am, N.C.[ E - G - A ]Am,

e|-|-----------------------------------------------------------------------------------------|
b|-|-----------------------------------------------------------------------------------------|
G|-|-----------------------------------------------------------------------------------------|
D|-|-----------------------------------------------------------------------------------------|
A|-|-----------------3-----3-----3----------------3-----3-----3----------------3-----3-----3-|
E|-|---0--h3--h5--5-----5-----5-----0--h3--h5--5-----5-----5-----0--h3--h5--5-----5-----5----|


N.C.[ E - G - A ]Am, N.C.[ E - G - A ]Am


e|-|----------------------------------------------------------|
b|-|----------------------------------------------------------|
G|-|----------------------------------------------------------|
D|-|----------------------------------------------------------|
A|-|---------------3-----3-----3--------------3-----3-----3---|
E|-|---0-h3-h5--5-----5-----5-----0-h3-h5--5-----5-----5------|


 N.C.[ A - G - E - D  -  C - A - G - A ]


e|-|---------------------------------|
b|-|---------------------------------|
G|-|---------------------------------|
D|-|---------------------------------|
A|-|-------------5---3---------------|
E|-|---5---3---0--------5---3---5----|


VERSES: N.C.[ E - G - A ] Am, N.C.[ E - G - A ] Am, N.C.[ E - G - A ]Am,

e|-|-----------------------------------------------------------------------------------------|
b|-|-----------------------------------------------------------------------------------------|
G|-|-----------------------------------------------------------------------------------------|
D|-|-----------------------------------------------------------------------------------------|
A|-|-----------------3-----3-----3----------------3-----3-----3----------------3-----3-----3-|
E|-|---0--h3--h5--5-----5-----5-----0--h3--h5--5-----5-----5-----0--h3--h5--5-----5-----5----|

N.C.[ E - G - A ]Am, N.C.[ E - G - A ]Am

e|-|----------------------------------------------------------|
b|-|----------------------------------------------------------|
G|-|----------------------------------------------------------|
D|-|----------------------------------------------------------|
A|-|---------------3-----3-----3--------------3-----3-----3---|
E|-|---0-h3-h5--5-----5-----5-----0-h3-h5--5-----5-----5------|

 N.C.[ A - G - E - D  -  C - A - G - A ],  N.C.[ A - G - E - D  -  C - A - G - A ]

e|-|-----------------------------------------------------------------------------------------|
b|-|-----------------------------------------------------------------------------------------|
G|-|-----------------------------------------------------------------------------------------|
D|-|-----------------------------------------------------------------------------------------|
A|-|-------------5---3-----------------------------5---3-------------------------------------|
E|-|---5---3---0--------5---3---5--------5---3---0--------5---3---5--------------------------|
Добавлено: 29.05.2016
Другие материалы по этой песне:
  • Аккорды и текст

Страница создана 29.05.2016
http://primanota.ru/indiana-bible-college/shelter-me-chords.htm
Привет, Гость.
Предлагаем пройти революционный курс по гитаре.
Подарок от PrimaNota.Ru, забирай!