PrimaNota.ru - самый крупный в мире бесплатный архив песенных текстов, аккордов, табулатур и нот


Indian Summer - Angry Son - таба, бас-таба, видео

Регистрация Запомнить меня
Войти через:  Facebook Google Twitter Vk Yandex Mail.ru

Indian Summer - Angry Son - таба, бас-таба, видео

Печатать
Просмотров: 175
-----------------------------------------------------------------
Angry Son by Indian Summer
-----------------------------------------------------------------
Tabbed by: Paengkee
Email:paengkee@gmail.com
Tuning: standard

Shout out to My band Salvation army, Rakista.com and then stuff... This is one for the emo kids out there.

Guitar 1: Intro/Verse 1 (clean)
e|-------------------------------5--5----------------------------|
B|---------10--10--10-----------------7-----------7--7--7--------|
G|---7--7------------------7--7-------------7--7-----------------|
D|-/9--9--9---9---9---9/7-7--7--7--7----7--5--5--5--5--5---------|
A|---------------------------------------------------------------|
E|---------------------------------------------------------------|

e|------------------|
B|--------7--7------|
G|--7--7-------7----|
D|-5--5--5--5-------|
A|------------------|
E|------------------|

Guitar 2: Verse 1 (clean)
e|-----------------------------------------|---------------------|
B|-----------------------------------------|---------------------|
G|-----------------------------------------|---------------------|2x
D|---------9--9---9-------------5--5---5---|---------5--5---5----|
A|-7---7--7----7-----7--5---5--5----5-----5|-3---3--3----3-----3-|
E|-----------------------------------------|---------------------|

Bass: Verse (constant throughout all verse parts)
G|-----------------------------------------|---------------------|
D|---------9-----9/7------------5-----5--7-|---------5--5---5----|
A|-7---7--7----7--------5---5--5---7-------|-3---3--3----3-----3-|2x
E|-----------------------------------------|---------------------|



Guitar 1: Pre-chorus
e|---------|	
B|---7-----|	
G|---7-----|	
D|---5-----|Once on clean. Turn on distortion on buildup and strum fast 16x 	
A|---------|	
E|---------|	

Guitar 2 Pre-chorus
e|---------|	
B|---------|	
G|---5-----|	
D|---5-----|Once on clean. Turn on distortion on buildup and strum fast 16x
A|---3-----|	
E|---------|


Guitar 1: First Chorus (Distortion)
e|--------------------------------|        |--------|
B|--------------------------------|        |--------| 
G|--16-----14-----5--/12---5--/12-|        |---5----|
D|--x------x------x---x----x--x---|4x then |---x----| 2x
A|--14-----12-----3--/10---3--/10-|        |---3----|
E|--------------------------------|        |--------|


Guitar 2: Chorus (distortion)
e|--------------------|        |-------|
B|--------------------|        |-------|
G|--9------7------5---|        |---5---|
D|--9------7------5---|4x then |---5---|2x
A|--7------5------3---|        |---3---|
E|--------------------|        |-------|


Bass: chorus
G|--------------------------------------------|----------------------|
D|---------9-9-9---7-7-----------7-7-7---5-5--|---------5-5-5---3-3--|
A|-7-7-7--7-------------5-5-5--5--------------|-3-3-3--3-------------|2x
E|--------------------------------------------|----------------------|


Guitar 2: Post-Chorus (pick only ONCE! Slide all the way. Distortion)
e|---------------------------------------------------------------|
B|---/5------\3-------\1-----------------------------------------|
G|---------------------------------------------------------------|
D|---------------------------------------------------------------|
A|---------------------------------------------------------------|
E|---------------------------------------------------------------|


Guitar 1: Second Verse (picks select notes from intro riff. Build up.)

Guitar 2: Second Verse (clean)
e|-------15-------15-14--------15-14-12--------------------------|
B|---------------------------------------------------------------|
G|---------------------------------------------------------------|
D|---------------------------------------------------------------|
A|---------------------------------------------------------------|
E|---------------------------------------------------------------|


Guitar 1: Pre-chorus
e|---------|	
B|---7-----|	
G|---7-----|	
D|---5-----|Once on clean. Turn on distortion on buildup and strum fast 16x 	
A|---------|	
E|---------|	

Guitar 2 Pre-chorus
e|---------|	
B|---------|	
G|---5-----|	
D|---5-----|Once on clean. Turn on distortion on buildup and strum fast 16x
A|---3-----|	
E|---------|


Guitar 1: Second Chorus part 1 (distortion)

e|------------------------------------------------|        
B|------------------------------------------------|        
G|--16-17-16-----14---17-16-14----5--/12---5--/12-|       
D|--x--x--x------x----x--x--x-----x---x----x---x--|4x then 
A|--14-15-14-----12---15-14-12----3--/10---3--/10-|        
E|------------------------------------------------| 

e|----5--5--5-5--5------|
B|-----6--6----6--6-----|
G|----------------------|4x       
D|----------------------|
A|----------------------|
E|----------------------|


Guitar 2: Chorus (distortion)
e|--------------------|        
B|--------------------|        
G|--9------7------5---|        
D|--9------7------5---|8x
A|--7------5------3---|        
E|--------------------|        


Guitar 1: End on

e|---5-----|
B|---6-----|
G|---x-----|
D|---x-----|
A|---x-----|
E|---x-----|

Guitar 2: End on

e|---------|
B|---------|
G|---9-----|
D|---9-----|
A|---7-----|
E|---------|


Bass: end on

G|---------|
D|---------|
A|---7-----|
E|---------|



| /  slide up
| \  slide down
| h  hammer-on
| p  pull-off
| ~  vibrato
| +  harmonic
| x  Mute note
Добавлено: 29.05.2012
Другие материалы по этой песне:

Страница создана 19.03.2012
http://primanota.ru/indian-summer/angry-son-chords.htm
Привет, Гость.
Предлагаем пройти революционный курс по гитаре.
Подарок от PrimaNota.Ru, забирай!