PrimaNota.ru - самый крупный в мире бесплатный архив песенных текстов, аккордов, табулатур и нот


Indian Ocean - Bharam Bhaap Ke - таба, видео

Регистрация Запомнить меня
Войти через:  Facebook Google Twitter Vk Yandex Mail.ru

Indian Ocean - Bharam Bhaap Ke - таба, видео

Печатать
Просмотров: 60
Hello frnd I 'm Brijesh Shir,
here you can find some "Rarest"  leads of Indian Ocean Band,
which is impossible to found out on net.

Song:- Bharam Bhaap ke-(Instrumental)
Band:- Indian Ocean
(Band)Guitarist:- Susmit Sen
Album:- Black Friday
Decoded by:- Brijesh Shir


This band is my favourite band, because the way they compose songs
 it is terrific and touching to hearts of people.

 e||----------------------------------------------------------------------------|
B||--17p14--17p14---------------------------------------------------14----------|
G||---------------------12/14--17--12/14--17-----17/18--17/18-------------------|
D||-----------------------------------------------------------------------------|
A||-----------------------------------------------------------------------------|
E||-----------------------------------------------------------------------------|

I have decoded this Indian Ocean's song Bharam Bhaap ke-(Instrumental)
by sitting 4 hours and listen it from my phone

 e||---------------------------------------------------------------------------------|
B||-17--17---------------------------------------------------------------------------|
G||---------14~-11-13-13~--14-13-11-13-9~--14-13-11-13-9~--8~~-6---------------------|
D||----------------------------------------------------------------------------------|
A||----------------------------------------------------------------------------------|
E||----------------------------------------------------------------------------------|

It was impossible to find lead of Indian Ocean's songs,
You can hardly find only parts of some song on net


 e||----------------------------------------------------------------------------|
B||-----------------------------------------------------------------------------|
G||-14-13-11-13-----11-13-----14-13-11-13-----11-13-14-13-----------------------|
D||-----------------14-----------------------------14---------------------------|
A||-----------------------------------------------------------------------------|
E||-----------------------------------------------------------------------------|

 e||----------------------------------------------------------------------|
B||-----------------------------------------------------------------------|
G||-13-14-14-17-13-14-11---11-13-13-13-14-13---11-13-13---11-11-13-11-9~--|
D||-----------------------------------------------------------------------|
A||-----------------------------------------------------------------------|
E||-----------------------------------------------------------------------|

So I desided to show my talent through world wide web.

 e||----------------------------------------------------------------------------|
B||-----------------------------------------------------------------------------|
G||-11-9-----9---------------------------13-11-----11---------------------------|
D||--------12---11---11-11-13-13-14---------14-----13---------------------------|
A||-----------------------------------------------------------------------------|
E||-----------------------------------------------------------------------------|

 e||----------------------------------------------------------------------------|
B||-----------------------------------------------------------------------------|
G||-----------------11-11-----11-------------------------------11-11-11-----11--|
D||-11-11-13-14---------14-----13---11-11-11-13-13-14-------------14-----13-----|
A||-----------------------------------------------------------------------------|
E||-----------------------------------------------------------------------------|

 e||---------------------------------------------------------------------|
B||----------------------------------------------------------------------|
G||----------------------------------------------------------------------|
D||-11-11-10[7]-11-11-11---11-11-9[7]-11-11-11---11-11-8[7]-10[3]-11[n]--|
A||----------------------------------------------------------------------|
E||----------------------------------------------------------------------|

It was so hard for me to decode lead of this song,

 e||---------------------------------------------------------------------|
B||----------------------------------------------------------------------|
G||----------------------------------------------------------------------|
D||-11-11-10[7]-11-11-11---11-11-9[7]-11-11-11---11-11-8[7]-10[3]-11[n]--|
A||----------------------------------------------------------------------|
E||----------------------------------------------------------------------|



 e||-----------------------------------------------------------------------------------|
B||------------------------------------------------------------------------------------|
G||----------------------------------------------------------------11[3]---------------|
D||-{-11-13-14-13[3]-10[3]-11[4]-}X2---11-13-14-13[3]--------14[4]---------------------|
A||------------------------------------------------------------------------------------|
E||------------------------------------------------------------------------------------|

 e||----------------------------------------------------------------------------|
B||-----------------------------------------------------------------------------|
G||-----------------------------------------------------------------------------|
D||-14[3]-13[4]-13[3]-11[4]-----------------------------------------------------|
A||-----------------------------------------------------------------------------|
E||-----------------------------------------------------------------------------|

 e||---------------------------------------------------------------------|
B||----------------------------------------------------------------------|
G||----------------------------------------------------------------------|
D||-11-11-10[7]-11-11-11---11-11-9[7]-11-11-11---11-11-8[7]-10[3]-11[n]--|
A||----------------------------------------------------------------------|
E||----------------------------------------------------------------------|

 e||----------------------------------------------------------------------------|
B||-----------------------------------------------------------------------------|
G||-----------------------------------------------------------------------------|
D||-11-13-11---10-11-10---8-10-8---6-8-6---4-6-4---2-4-2-1----------------------|
A||-----------------------------------------------------------------------------|
E||-----------------------------------------------------------------------------|

 e||----------------------------------------------------------------------------|
B||-----------------------------------------------------------------------------|
G||--------------------------------5-5---5-6-8-6-5-6-6--------------------------|
D||-1-2-2---2-4-4---4-6-6---6---------------------------------------------------|
A||-----------------------------------------------------------------------------|
E||-----------------------------------------------------------------------------|

 e||---------------------------------------------------------------------|
B||----------------------------------------------------------------------|
G||----------------------------------------------------------------------|
D||-11-11-10[7]-11-11-11---11-11-9[7]-11-11-11---11-11-8[7]-10[3]-11[n]--|
A||----------------------------------------------------------------------|
E||----------------------------------------------------------------------|

 e||----------------------------------------------------------------------------|
B||-----------------------------------------------------------------------------|
G||-9[6]--11/9--9[6]--9/11-9-8--------------------------------------------------|
D||-----------------------------------------------------------------------------|
A||-----------------------------------------------------------------------------|
E||-----------------------------------------------------------------------------|

 e||-------------------------------------------------------------------|
B||--------------------------------------------------------------------|
G||-8-9-9---9-11-11---11-13-13---13-17-17---17-18-20---18-17-15-17-18--|
D||--------------------------------------------------------------------|
A||--------------------------------------------------------------------|
E||--------------------------------------------------------------------|

I had got frustrated at point where I couldn't figure out what is Mr.(Master) Susmit plays.

 e||--------------------------------------------------------------------------|
B||---------------------------------------------------------------------------|
G||-17-18-20-18-17-15-17-18-15-17-17-13-15-15-11-13--11-13-17-15-17-15-17-18--|
D||---------------------------------------------------------------------------|
A||---------------------------------------------------------------------------|
E||---------------------------------------------------------------------------|

 e||------------------------------------------------------------------------------|
B||-------------------------------------------------------------------------------|
G||-15-18-17---13-17-15---11-15--13-----13-11--------11---------------------------|
D||------------------------------------------14------------13-----14-11-13-14-11--|
A||-------------------------------------------------------------------------------|
E||-------------------------------------------------------------------------------|

 e||---------------------------------------------------------------------|
B||----------------------------------------------------------------------|
G||----------------------------------------------------------------------|
D||-11-11-10[7]-11-11-11---11-11-9[7]-11-11-11---11-11-8[7]-10[3]-11[n]--|
A||----------------------------------------------------------------------|
E||----------------------------------------------------------------------|

 e||-----------------------------------------------------------------------------------|
B||------------------------------------------------------------------------------------|
G||----------------------------------------------------------------11[3]---------------|
D||-{-11-13-14-13[3]-10[3]-11[4]-}X2---11-13-14-13[3]--------14[4]---------------------|
A||------------------------------------------------------------------------------------|
E||------------------------------------------------------------------------------------|

 e||----------------------------------------------------------------------------|
B||-----------------------------------------------------------------------------|
G||-----------------------------------------------------------------------------|
D||-14[3]-13[4]-13[3]-11[4]-----------------------------------------------------|
A||-----------------------------------------------------------------------------|
E||-----------------------------------------------------------------------------|

 e||-----------------------------------------------------------------------------|
B||------------------------------------------------------------------------------|
G||------------------------------------------------------------------------------|
D||-11-11-10[7]-11-11-11---{-[11-13/14]-}X3--11-13-14-13-14----------------------|
A||------------------------------------------------------------------------------|
E||------------------------------------------------------------------------------|

But I continuosly listen that part of song for at least 1 hour.

 e||-------------------------------------------------------------------|
B||--------------------------------------------------------------------|
G||-{-[11-13/14]-}X3--11-13-14-13-14---13-14-17---13-14-13---11-13-11--|
D||--------------------------------------------------------------------|
A||--------------------------------------------------------------------|
E||--------------------------------------------------------------------|

 e||-------------------------------------------------------------------------------|
B||--------------------------------------------------------------------------------|
G||-----11-------------------------------------------------------------------------|
D||-13-----13---11-13-11---10-11-13-8---{-8-8-10-10-11-}X3-11----------------------|
A||--------------------------------------------------------------------------------|
E||--------------------------------------------------------------------------------|

Play Dm chord on 5th fret than slide as this pattern
Dm D#m Fm F#m Fm D#m Dm

only play last 3 strings to match the original song....
to see how to play see my video on youtube
Click this link...

http://www.youtube.com/watch?v=RZ_p6bID_AM&feature=g-upl&context=G2c2df02AUAAA

AAAAHAA

 e||-----------------------------------------------------------------------------------|
B||------------------------------------------------------------------------------------|
G||----------------------------------------------------------------11[3]---------------|
D||-{-11-13-14-13[3]-10[3]-11[4]-}X2---11-13-14-13[3]--------14[4]---------------------|
A||------------------------------------------------------------------------------------|
E||------------------------------------------------------------------------------------|

 e||----------------------------------------------------------------------------|
B||-----------------------------------------------------------------------------|
G||-----------------------------------------------------------------------------|
D||-14[3]-13[4]-13[3]-11[4]-----------------------------------------------------|
A||-----------------------------------------------------------------------------|
E||-----------------------------------------------------------------------------|

 e||---------------------------------------------------------------------|
B||----------------------------------------------------------------------|
G||----------------------------------------------------------------------|
D||-11-11-10[7]-11-11-11---11-11-9[7]-11-11-11---11-11-8[7]-10[3]-11[n]--|
A||----------------------------------------------------------------------|
E||----------------------------------------------------------------------|

So I hope now you got it how much BIGGEST FAN of this band I am.

 e||-----------------------------------------------------------------------------|
B||-17p14--17p14---------------------------16[3]-17-16-17-16-14-17[3]------------|
G||-------------------13-14-17--13-14-17-------------------------------------14--|
D||------------------------------------------------------------------------------|
A||------------------------------------------------------------------------------|
E||------------------------------------------------------------------------------|

 e||-----------------------------------------------------------------------------------|
B||------------------------------------------------------------------------------------|
G||-12-14~--14-13-11-13------114-13-11-13-------------8-10-8-10-6----------------------|
D||---------------------------14--------------------14---13~---------------------------|
A||------------------------------------------------------------------------------------|
E||------------------------------------------------------------------------------------|

Hope you like this song lead, and journey of that 4 hours.

I had decoded Kandisaaaa leads.......
In near future I will Give you Leads of Kandisaaaa , obviously this song is
from Indian Ocean Band.

all COPYRIGHTS are reserved by BRIJESH SHIR.................
You can join me on Facebook, Youtube, Twitter..........
http://www.facebook.com/brijesh.shir
http://www.facebook.com/pages/Brijesh-Shir/304829899532045
http://www.youtube.com/user/brijeshshir?feature=mhee
https://twitter.com/#!/

To see videos of other songs, Just search BRIJESH SHIR on Youtube search bar.........
Добавлено: 06.09.2013
Вам также может быть интересно:
Другие материалы по этой песне:
  • Аккорды и текст

Страница создана 06.09.2013
http://primanota.ru/indian-ocean/bharam-bhaap-ke-chords.htm
Привет, Гость.
Предлагаем пройти революционный курс по гитаре.
Подарок от PrimaNota.Ru, забирай!