PrimaNota.ru - самый крупный в мире бесплатный архив песенных текстов, аккордов, табулатур и нот


Indian Handcrafts - Its Late Queeny - таба, видео

Регистрация Запомнить меня
Войти через:  Facebook Google Twitter Vk Yandex Mail.ru

Indian Handcrafts - Its Late Queeny - таба, видео

Печатать
Просмотров: 73
-------------------------------------------------------------------------------
                             It's Late Queeny - Indian Handcrafts
-------------------------------------------------------------------------------
Tabbed by:Cfarrow

In love with this riff -- I've tabbed this by ear - not 100% correct
Also not sure of the tuning; I think it's Drop C half step down.

I play this song by dropping EAD strings down to CGC and leave gbe stings standard

Tuning:CGCgbe

intro/main riff
e|-----------------------------------------------------------------------------------|
b|--------------------------------------------------------------------------12~~ ----|
g|-----------14-14-----14-14-----14-14--------------14-14-----14-14-----14---x-------|
C|--------x--10-10--x--10-10--x--10-10--x--------x--10-10--x--10-10--x--10--12~~ ----|
G|--------x--x--x---x--x--x---x--x--x---x--------x--x--x---x--x--x---x--x------------|
C|--10h12-x---------x---------x---------x--10h12-x---------x---------x---------------|


e|-------------------------------------||--------------------------------------|
b|-------------------------------------||--------------------------------------|
g|-------------------------------------||-------------------------------12+----|
C|-------------------------------------||-------------------------------12+----|
G|-------------------------------------||-------------------------------12+----|
C|--10/0--00--10/0--00--10-xxx-555-----||--10/0--00--10/0--00--10-xxx----------|

e|---------------------------------------------------------------------------|
b|---------------------------------------------------------------------------|
g|---------------------------------------------------------------------------|
C|--7p5-----3h5----10-0--10--10h12-------------------------------------------|
G|--7p5-----3h5----10-0--10--10h12-------------------------------------------|
C|--7p5--x--3h5-x--10-0--10--10h12-------------------------------------------|

e|---------------||-----------------------------------------------------------|
b|---------------||-----------------------------------------------------------|
g|---------------||-----------------------------------------------------------|
C|--10--5--12--0-||---10-9-8---8-7-5---3p0------------------------------------|
G|--10--5--12--0-||---10-9-8---8-7-5---3p0------------------------------------|
C|--10--5--12--0-||---10-9-8---8-7-5---3p0------------------------------------|


Anyways those are the riffs -- sound it out it aint that tough -- you'll be rockin in no time

Peace Love
xox

************************************

| /   slide up
| \   slide down
| h   hammer-on
| p   pull-off
| ~   vibrato
| +   harmonic
| x   Mute note
| b   Bend
| pb  Pre-bend
| br  Bend release
| pbr Pre-bend release
| brb Bend release bend

************************************
Добавлено: 13.06.2016
Другие материалы по этой песне:
  • Аккорды и текст

Страница создана 13.06.2016
http://primanota.ru/indian-handcrafts/its-late-queeny-chords.htm
Привет, Гость.
Предлагаем пройти революционный курс по гитаре.
Подарок от PrimaNota.Ru, забирай!