PrimaNota.ru - самый крупный в мире бесплатный архив песенных текстов, аккордов, табулатур и нот


India Arie - Back to The Middle - текст песни, таба, видео

Регистрация Запомнить меня
Войти через:  Facebook Google Twitter Vk Yandex Mail.ru

India Arie - Back to The Middle - текст песни, таба, видео

Печатать
Просмотров: 210
-------------------------------------------------------------------------------
                             Back to the middle - India Arie
-------------------------------------------------------------------------------
Tabbed by: Joell Blom
E-mail:

Tuning: standart 

 Am(1) Cmaj7 Fsus2  E7    G    E7/G# Am(2)
e|-0--|--0--|--1--|--0--|--3--|--4--|--5--|
B|-1--|--0--|--1--|--0--|--3--|--3--|--5--|
G|-0--|--0--|--0--|--1--|--0--|--4--|--5--|
D|-2--|--2--|--3--|--0--|--5--|--0--|--7--|
A|-0--|--3--|--3--|--2--|--5--|--0--|--7--|
E|-0--|--0--|--1--|--0--|--3--|--4--|--5--|

Intro



       Am (1)                  Cmaj7              Fsus2                    E7                          
e|-----|--------------------|-----------------|-----------------|--------------0----|
B|-----|------1------1------|------0-----0----|------1-----1----|------1-------0----|
G|-----|------0------0------|------0-----0----|------0-----0----|------0------------|
D|-----|----2------2--------|----2-----2------|----3-----3------|----3-------0------|
A|-----|--0------0------0h2/|-3------3-------0|-----------------|---------2---------|
E|-0h3-|--------------------|-----------------|-1------1------1-|-1--------------0h3|

  Am (1)               Cmaj7              Fsus2                    E7                          
e|--------------------|-----------------|-----------------|--------------0----|
B|------1------1------|------0-----0----|------1-----1----|------1-------0----|
G|------0------0------|------0-----0----|------0-----0----|------0------------|
D|----2------2--------|----2-----2------|----3-----3------|----3-------0------|
A|--0------0------0h2/|-3------3-------0|-----------------|---------2---------|
E|--------------------|-----------------|-1------1------1-|-1--------------0h3|

verse

  Am (1)               Cmaj7              Fsus2                     E7                          
e|--------------------|-----------------|-----------------|-------------------|
B|------1------1------|------0-----0----|------1-----1----|------1-------3----|
G|------0------0------|------0-----0----|------0-----0----|------0-------0----|
D|----2------2--------|----2-----2------|----3-----3------|----3-------0------|
A|--0------0------0h2/|-3------3-------0|-----------------|---------2---------|
E|--------------------|-----------------|-1------1------1-|-1--------------0h3|

                                            
       Am (1)                  Cmaj7              Fsus2                    E7                          
e|--------------------|-----------------|-----------------|--------------0----|
B|------1------1------|------0-----0----|------1-----1----|------1-------0----|
G|------0------0------|------0-----0----|------0-----0----|------0------------|
D|----2------2--------|----2-----2------|----3-----3------|----3-------0------|
A|--0------0------0h2/|-3------3-------0|-----------------|---------2---------|
E|--------------------|-----------------|-1------1------1-|-1--------------0h3|

Bridge

  Fsus2              G                   E7/G#             Am (2)
e|----------------|-----3------3----|------4-----4----|-------------5----|
B|-----1-----1----|-----3------3----|------3-----3----|------5------5----|
G|-----0-----0----|------------0----|----4-----4------|------5----5------|
D|---3-----3------|---5------5------|-----------------|----7-------------|
A|----------------|-----------------|-----------------|---------7--------|
E|-1-----1------1-|-3------3------3-|-4------4------4-|-5------5---------|

  Fsus2              G                   E7/G#             Am (2)
e|----------------|-----3------3----|------4-----4----|-------------5----|
B|-----1-----1----|-----3------3----|------3-----3----|------5------5----|
G|-----0-----0----|------------0----|----4-----4------|------5----5------|
D|---3-----3------|---5------5------|-----------------|----7-------------|
A|----------------|-----------------|-----------------|---------7--------|
E|-1-----1------1-|-3------3------3-|-4------4------4-|-5------5---------|

  Fsus2             E7
e|------------1---|----------------|
B|-----1------1---|------1---0-----|
G|-----0----0-----|------0---1-----|
D|---3------------|----3-----0-----|
A|----------------|----------2-----|
E|-1-----1------1-|-1-----------0h3|

Instrumental

       Am (1)                  Cmaj7              Fsus2                    E7                          
e|--------------------|-----------------|-----------------|--------------0----|
B|------1------1------|------0-----0----|------1-----1----|------1-------0----|
G|------0------0------|------0-----0----|------0-----0----|------0------------|
D|----2------2--------|----2-----2------|----3-----3------|----3-------0------|
A|--0------0------0h2/|-3------3-------0|-----------------|---------2---------|
E|--------------------|-----------------|-1------1------1-|-1--------------0h3|

Verse
       Am (1)                  Cmaj7              Fsus2                    E7                          
e|--------------------|-----------------|-----------------|--------------0----|
B|------1------1------|------0-----0----|------1-----1----|------1-------0----|
G|------0------0------|------0-----0----|------0-----0----|------0------------|
D|----2------2--------|----2-----2------|----3-----3------|----3-------0------|
A|--0------0------0h2/|-3------3-------0|-----------------|---------2---------|
E|--------------------|-----------------|-1------1------1-|-1--------------0h3|


       Am (1)                  Cmaj7              Fsus2                    E7                          
e|--------------------|-----------------|-----------------|--------------0----|
B|------1------1------|------0-----0----|------1-----1----|------1-------0----|
G|------0------0------|------0-----0----|------0-----0----|------0------------|
D|----2------2--------|----2-----2------|----3-----3------|----3-------0------|
A|--0------0------0h2/|-3------3-------0|-----------------|---------2---------|
E|--------------------|-----------------|-1------1------1-|-1--------------0h3|

       Am (1)                  Cmaj7              Fsus2                    E7                          
e|--------------------|-----------------|-----------------|--------------0----|
B|------1------1------|------0-----0----|------1-----1----|------1-------0----|
G|------0------0------|------0-----0----|------0-----0----|------0------------|
D|----2------2--------|----2-----2------|----3-----3------|----3-------0------|
A|--0------0------0h2/|-3------3-------0|-----------------|---------2---------|
E|--------------------|-----------------|-1------1------1-|-1--------------0h3|

       Am (1)                  Cmaj7              Fsus2                    E7                          
e|--------------------|-----------------|-----------------|--------------0----|
B|------1------1------|------0-----0----|------1-----1----|------1-------0----|
G|------0------0------|------0-----0----|------0-----0----|------0------------|
D|----2------2--------|----2-----2------|----3-----3------|----3-------0------|
A|--0------0------0h2/|-3------3-------0|-----------------|---------2---------|
E|--------------------|-----------------|-1------1------1-|-1--------------0h3|

Bridge

  Fsus2              G                   E7/G#             Am (2)
e|----------------|-----3------3----|------4-----4----|-------------5----|
B|-----1-----1----|-----3------3----|------3-----3----|------5------5----|
G|-----0-----0----|------------0----|----4-----4------|------5----5------|
D|---3-----3------|---5------5------|-----------------|----7-------------|
A|----------------|-----------------|-----------------|---------7--------|
E|-1-----1------1-|-3------3------3-|-4------4------4-|-5------5---------|

  Fsus2              G                   E7/G#             Am (2)
e|----------------|-----3------3----|------4-----4----|-------------5----|
B|-----1-----1----|-----3------3----|------3-----3----|------5------5----|
G|-----0-----0----|------------0----|----4-----4------|------5----5------|
D|---3-----3------|---5------5------|-----------------|----7-------------|
A|----------------|-----------------|-----------------|---------7--------|
E|-1-----1------1-|-3------3------3-|-4------4------4-|-5------5---------|

  Fsus2             E7
e|------------1---|----------------|
B|-----1------1---|------1--0------|
G|-----0----0-----|------0--1------|
D|---3------------|----3----0------|
A|----------------|---------2------|
E|-1-----1------1-|-1--------------|


************************************

| /   slide up
| \   slide down
| h   hammer-on
| p   pull-off
| ~   vibrato
| +   harmonic
| x   Mute note
| b   Bend
| pb  Pre-bend
| br  Bend release
| pbr Pre-bend release
| brb Bend release bend

************************************
Добавлено: 15.08.2015
Другие материалы по этой песне:
  • Аккорды и текст

Страница создана 27.04.2012
http://primanota.ru/india-arie/back-to-the-middle-chords.htm
Привет, Гость.
Предлагаем пройти революционный курс по гитаре.
Подарок от PrimaNota.Ru, забирай!