PrimaNota.ru - самый крупный в мире бесплатный архив песенных текстов, аккордов, табулатур и нот


Index Case - Deserver - таба, видео

Регистрация Запомнить меня
Войти через:  Facebook Google Twitter Vk Yandex Mail.ru

Index Case - Deserver - таба, видео

Печатать
Просмотров: 91
Уроки эстрадного вокала в Санкт-Петербурге
Index Case: Deserver

Transcribed by: mysticguitar77

YouTube Channel: https://www.youtube.com/user/MysticGuitar77

Date last modified: March 11, 2015

Tuning: Drop B (B,F#,B,E,G#,C#)

Riff 1
C#|------------------------------------------------|
G#|------------------------------------------------|
 E|------10-----------10-----------10--------------|
 B|------x------------x------------x----14--9-9-10-|
F#|-0--0-8--0-0--0--0-8--0-0--0--0-8--0-10--5-5-7--|
 B|-0--0----0-0--0--0----0-0--0--0----0-10--5-5-7--|

Play Riff 1 x2

Riff 2   "F*** your memories..."
C#|----------------------------------|
G#|----------------------------------|
 E|----------------------------------|
 B|----------------------------------|
F#|-0--0-0-0-0---0----0--0-0-0-0---0-|
 B|-0--0-0-0-0---0----0--0-0-0-0---0-|
    *  * * * *   *    *  * * * *   *

Play Riff 2 x2   "F*** your enemies..."

Riff 3   "Falling down this endless name..."
C#|-----------------------------------------------------------------|
G#|-----------------------------------------------------------------|
 E|-10--10-10-10-10--10-10-10-10-10---------------------------------|
 B|-x---x--x--x--x---x--x--x--x--x--14--14-14-14-14--14-14-14-14-14-|
F#|-8---8--8--8--8---8--8--8--8--8--10--10-10-10-10--10-10-10-10-10-|
 B|-0---0--0--0--0---0--0--0--0--0--10--10-10-10-10--10-10-10-10-10-|

C#|-----------------------------------------------|
G#|-----------------------------------------------|
 E|-----------------------------------------------|
 B|-9--9-9-9-9--9-9-9-9-9-10--10-10-10-10--3-3-7\-|
F#|-5--5-5-5-5--5-5-5-5-5-7---7--7--7--7---3-3-7\-|
 B|-5--5-5-5-5--5-5-5-5-5-7---7--7--7--7---3-3-7\-|

Play Riff 3 x2   "Forgotten time, left behind..."

Fill 1
C#|-----------------------------------|
G#|-----------------------------------|
 E|-----------------9-9---------------|
 B|---------------------9-9-10-10-----|
F#|-0--0-0-0-0---0----------------10\-|
 B|-0--0-0-0-0---0----------------10\-|
    *  * * * *   *  * * * * *  *

Play Riff 2 x2   "F*** your memories..."

Fill 2   "...they dance around you..."
C#|------------------|
G#|------------------|
 E|-9-9--------------|
 B|-----9-9-10-10-10-|
F#|------------------|
 B|------------------|

Play Riff 1 x2
Play Riff 3 x2   "Falling down this endless name..."

Riff 4 (light distortion)   "Is that okay with you..."
C#|--------------------|
G#|--------------------|
 E|-10-----------------|
 B|-x---14----9--10----|
F#|-8---10----5--7-----|
 B|-0---10----5--7-----|

Riff 5
C#|---------------------------------------------------------------------|
G#|---------------------------------------------------------------------|
 E|-10-10-10-10---------------------------------------------------------|
 B|-x--x--x--x----14-14-14-14---14-14---9-9-9-9---10-10-10-10---10-10---|
F#|-8--8--8--8--0-10-10-10-10-0-10-10-0-5-5-5-5-0-7--7--7--7--0-7--7--0-|
 B|-0--0--0--0--0-10-10-10-10-0-10-10-0-5-5-5-5-0-7--7--7--7--0-7--7--0-|
                *             *       *         *             *       *
                                                                ^ end here last time through

Play Riff 5 x4 (1st 2 times through with light distortion, 2nd 2 times through with full distortion)

Riff 6   "Falling down this endless name..."
C#|------------------------------------------------|
G#|------------------------------------------------|
 E|-10--10-10--------------------------------------|
 B|-x---x--x----14-14---14-----9--9-9-9-10--3-3-7\-|
F#|-8---8--8--0-10-10-0-10-0-0-5--5-5-5-7---3-3-7\-|
 B|-0---0--0--0-10-10-0-10-0-0-5--5-5-5-7---3-3-7\-|

Play Riff 6 x4   "Would love to be a part of this pain..."

Final time through:
C#|--------------------------------------|
G#|--------------------------------------|
 E|-10--10-10----------------------------|
 B|-x---x--x----14-14---14-----9-9---10~-|
F#|-8---8--8--0-10-10-0-10-0-0-5-5-0-7~--|
 B|-0---0--0--0-10-10-0-10-0-0-5-5-0-7~--|
                                   *

Enjoy!!

Добавлено: 19.12.2015
Другие материалы по этой песне:
  • Аккорды и текст

Страница создана 19.12.2015
http://primanota.ru/index-case/deserver-chords.htm
Привет, Гость.
Предлагаем пройти революционный курс по гитаре.
Подарок от PrimaNota.Ru, забирай!