PrimaNota.ru - самый крупный в мире бесплатный архив песенных текстов, аккордов, табулатур и нот


Indecent Obsession - Fix In A Broken Heart - таба, видео

Регистрация Запомнить меня
Войти через:  Facebook Google Twitter Vk Yandex Mail.ru

Indecent Obsession - Fix In A Broken Heart - таба, видео

Печатать
Просмотров: 57
TAB by:Jtanz...
Title:Fix in a broken heart
Band: Indecent Obsession..

  Note: before you play be sure that the tune is in standard...

 Intro:

     A
  E----------------------------------------------|
  B------2---2---0----2--------------------------|
  G--------2---2---2--2--------------------------|
  D----2-----------------------------------------|
  A--0-------------------------------------------|
  E----------------------------------------------|


  (Verse 1):

   There was nothing to

     say  the   day  you    left
     A9
  E----------------------------------------------|
  B------0----------0-----------0----------------|
  G--------2----------2-----------2--------------|
  D----2----------2-----------2------------------|
  A--0-------------------------------------------|
  E-------------4-----------2--------------------|

  I  just filled a       suitcase      fall out  reg...rets...

                         Bm7           A9              E
  E--------------0-----------2-------------------0-----------------|
  B--------------0-----------3-------------------0---------0----0--|
  G----------------2-----------2-------------------2-------1/2--1--|
  D-------2----------------4----------------2------------2---------|
  A----------------------2-------------0---------------------------|
  E--0-------------------------------------------------0-----------|

     I hailed a       taxi       in   the    rain..

                      A9
  E-----------0-----------0-----------0---------0------------------|
  B-----------0-----------0-----------0---------0------------------|
  G-------------1-----------2-----------2---------2----------------|
  D----2----------------2----------2----------2--------------------|
  A--2----------------0--------------------------------------------|
  E------------------------------4-----------2---------------------|


     looking for     some place to  ease  the    pain..     ohh..

                     Bm7            A9           E          E
  E----------0------------2---------------0------0-0-0---0--0-0----|
  B----------0------------3---------------0------0-0-0---0--0-0----|
  G------------2------------2---------------2----1-1-1/2-1--1-1----|
  D-----2--------------4---------------2---------2-2-2---2--2-2----|
  A------------------2--------------0------------2-2-2---2--2-2----|
  E--0-------------------------------------------0-0-0---0--0-0----|

       Then like an  answered  prayer

     F#m                       A
  E-----------------------------------------------|
  B---------2----------2-------2---2/3-2----------|
  G---------2----------2-------2---2--------------|
  D------------------------------2----------------|
  A----4-----------------------0------------------|
  E--2-----------2---4----------------------------|


     I turned  a...round   and    found you     there.......

                       Bm7        C#m7              D9
  E------------------------2------------4--------------------|
  B--2---------2-----------3------------5--------------------|
  G--2---------2-------------2--------------4----------------|
  D----2---------2-------4----------6------------------------|
  A--------------------2----------4-----------------5--------|
  E----------------------------------------------------------|

  (CHORUS)

      You really know were to...

     start.....          fixing  a      broken   heart           you really

     A9                                          Bm7       A9
  E------0--------0--------------0---------0---------2---------0----|
  B------0--------0--------------0---------0---------3---------0----|
  G--------2--------2--------------2-------------------2---------2--|
  D----2--------2-------------2----------2---------4---------2------|
  A--0-------------------------------------------2---------0--------|
  E-----------4----------2-------------0----------------------------|

     know what to    do       Your emo.......tion...nal

     E

  E--------------------------------0-----------------0-----|
  B------------0-----0-------------0-----------------0-----|
  G------------1/2---1---------------2-----------------2---|
  D-------2-------------------2-----------------2----------|
  A------------------------2--------------0----------------|
  E--0-----------------------------------------------------|


     tools..  can't   cure a..ny     fool  whose


  E--------0------------------0------------0---------|
  B--------0------------------0------------0---------|
  G------------2----------------2------------2-------|
  D-----2------------------2-----------2-------------|
  A--------------------------------------------------|
  E--4----------------2--------------0---------------|


     dreams  have    fallen a......part

     Bm7             C#m7          E
  E----------2--------------4------------------------|
  B----------3--------------5----------0---0---------|
  G-----4------2--------6-----4--------1/3-1---------|
  D----------------------------------2---------------|
  A--2---------------4-------------------------------|
  E--------------------------------0-----------------|

     fixing   a       broken       heart....
                      A9
  E-----------------------0-------------0------------|
  B-----------0-----------0-------------0------------|
  G-----------1-------------2--------------2---------|
  D-------2------2------2-------------2--------------|
  A--2----------------0------------------------------|
  E--------------------------------4-----------------|


                      Mmm.....
                             A
  E------0------------0------------------------------|
  B------0------------0----------2---3---0---2-------|
  G--------2------------2----------2---2---2-2-------|
  D----2----------2------------2---------------------|
  A--------------------------0-----------------------|
  E--2----------0------------------------------------|

  (Verse 2):

   Same pattern to verse 1:
   Then...


  (Chorus 2):


      You really know were to...

     start.....          fixing  a      broken   heart           you really

     A9                                          Bm7       A9
  E------0--------0--------------0---------0---------2---------0----|
  B------0--------0--------------0---------0---------3---------0----|
  G--------2--------2--------------2-------------------2---------2--|
  D----2--------2-------------2----------2---------4---------2------|
  A--0-------------------------------------------2---------0--------|
  E-----------4----------2-------------0----------------------------|

     know what to    do       Your emo.......tion...nal

     E

  E--------------------------------0-----------------0-----|
  B------------0-----0-------------0-----------------0-----|
  G------------1/2---1---------------2-----------------2---|
  D-------2-------------------2-----------------2----------|
  A------------------------2--------------0----------------|
  E--0-----------------------------------------------------|


     tools..  can't   cure a..ny     fool  whose


  E--------0------------------0------------0---------|
  B--------0------------------0------------0---------|
  G------------2----------------2------------2-------|
  D-----2------------------2-----------2-------------|
  A--------------------------------------------------|
  E--4----------------2--------------0---------------|


     dreams  have    fallen a......part

     Bm7             C#m7          E
  E----------2--------------4------------------------|
  B----------3--------------5----------0---0---------|
  G-----4------2--------6-----4--------1/3-1---------|
  D----------------------------------2---------------|
  A--2---------------4-------------------------------|
  E--------------------------------0-----------------|

     fixing   a       broken hear
                      A                  A strum..
  E---------------------------------------0-0-0-0-----|
  B-----------0-----------2---3---0----2--2-2-2-2-----|
  G-----------1-------------2---2---2--2--2-2-2-2-----| > just listen to
  D-------2------2------2-----------------2-2-2-2-----|   to the song to get
  A--2----------------0-------------------0-0-0-0-----|   the struming
  E---------------------------------------------------|   timing...


  (Bridge):
  (struming)

   Em                         F#
    Soon the rain will stop falling baby        D9
                                             E--5-----|
    Bm7              C#m7                    B--5-----|
    Let's forget the past                    G--7-----|
                                             D--7-----|
           D9                                A--5-----|
    'cause here we are at last....           E--------|


     (Repeat Chorus 1)

     To Fade...


     I hope you enjoy it... this is a great song...
     At sa mga pinoy broken hearted haha sana magustuha nyo hehe
     ^^....
...
Добавлено: 30.12.2013
Другие материалы по этой песне:
  • Аккорды и текст

Страница создана 30.12.2013
http://primanota.ru/indecent-obsession/fix-in-a-broken-heart-chords.htm
Привет, Гость.
Предлагаем пройти революционный курс по гитаре.
Подарок от PrimaNota.Ru, забирай!