PrimaNota.ru - самый крупный в мире бесплатный архив песенных текстов, аккордов, табулатур и нот


Incubus - Surface To Air - текст песни, таба, видео

Регистрация Запомнить меня
Войти через:  Facebook Google Twitter Vk Yandex Mail.ru

Incubus - Surface To Air - текст песни, таба, видео

Печатать
Просмотров: 156
my first tab
Surface to Air (B-track) If not Now when


Intro
bass come first with G-note followed by guitar.
*Clean
e|-------------------------------------------------------------|
B|-------------------------------------------------------------|
G|------4------4----4---4---4-------4------4----4---4---4------|
D|---------5~----5----5---5---5~------5~-----5----5---5---5~---|
A|-------------------------------------------------------------|
E|--3~---------------------------3~----------------------------| 4x

verse
*Overdrive
e|--0~-------------|
B|----0~-----------|
G|------0~---------|
D|--------2~-------|
A|----------2~-----|
E|------------0~---|
    *upstroke you can use whammy or tremolo to give some tremolo effect

do you read me mayday......etc

chorus
i use clean + delay + reverb
wherever you are....send out a flare...
e|-----------------------------------------------|
B|-----------------------------------------------|
G|------7--7--7----7--7---7----7--7--9-9p7----7--|
D|----9----9----9--9--9-----9--9--9--9-9----9----|
A|-----------------------------------------------|
E|--0--------------------------------------------|

This is an attempt to connect, edify and dissect
Send a light
Send repair
From surface to air

interlude
i use light distortion (for gain) + phaser (wah effect) + soft delay + reverb
e|--------------------------------------------------------------------|
B|--------------------------------------------------------------------|
G|----------------------7~----------------------7--9~---9--9p7-----7--|
D|--------------7---9-------------------7---9-------------------9-----|
A|----7--9--10----------------7--9--10--------------------------------|
E|--------------------------------------------------------------------|

end part
e|--------12~-----|i give tremolo effect here...
B|-----12~--------|
G|---9~-----------|
D|----------------|
A|----------------|
E|----------------|

*do verse again

Do you hear me, mayday?
I am in search of
But I'm caught in a knot
Goes to say
So below is as above

*clean and deep sound with delay and reverb
e|---2------------|
B|-----3----------|
G|-------2s4------|
D|----------------|
A|----------------|
E|----------------|
Is there anyone out there?
I am high and dry
Suffering is a theme
But reckoning is the only reason why
We suffer at all
e|-----------------------------------------------|
B|-----------------------------------------------|
G|------7--7--7----7--7---7----7--7--9-9p7----7--|
D|----9----9----9--9--9-----9--9--9--9-9----9----|
A|-----------------------------------------------|
E|--0--------------------------------------------|

This is an attempt to connect, edify and dissect
Send a light
Send repair
From surface to aaaaaiiiiiirrrrrrr........

chord
e|--------------------0~--2~--|
B|--------------------0~--3~--|
G|--5~----------------0~--2~--|
D|--5~---5~-----------2~------|
A|--3~---5~-----------2~------|
E|-------3~-----------0~------|
    C    G  Ooohhh..  E   D
is there anyone...is there anyone..is there anyone...is there anyone out there....

back to Intro

e|-------------------------------------------------------------|
B|-------------------------------------------------------------|
G|------4------4----4---4---4-------4------4----4---4---4------|
D|---------5~----5----5---5---5~------5~-----5----5---5---5~---|
A|-------------------------------------------------------------|
E|--3~---------------------------3~----------------------------|

Suffering is a theme...But reckoning is the only reason why
e|-------------------------------------------------------------|
B|-------------------------------------------------------------|
G|------4------4----4---4---4-------4------4----4---4---4------|
D|---------5~----5----5---5---5~------5~-----5----5---5---5~---|
A|-------------------------------------------------------------|
E|--0~---------------------------0~----------------------------|

We suffer at all .........       so send out a flare.......
e|-------------------------------------------------------------|
B|----------------------------------0~---0~---0~---------------|
G|------4------4----4---4---4-------4b~--4b~--4b~--------------|
D|---------5~----5----5---5---5~-------------------------------|
A|--3~---------------------------------------------------------|
E|-------------------------------------------------------------|

chorus
send out a flaareeeee......send out aaa fflaaareeee          :D
guitar 1
e|-----------------------------------------------|
B|-----------------------------------------------|
G|------7--7--7----7--7---7----7--7--9-9p7----7--|
D|----9----9----9--9--9-----9--9--9--9-9----9----|
A|-----------------------------------------------|
E|--0--------------------------------------------|

guitar 2 play some weird short solo. i'm using whammy phaser tremolo mix what you want...


guitar1
e|-----------------------------------------------|
B|-----------------------------------------------|
G|------7--7--7----7--7---7----7--7--9-9p7----7--|
D|----9----9----9--9--9-----9--9--9--9-9----9----|
A|-----------------------------------------------|
E|--0--------------------------------------------|
                            this is an attempt to connect.......
guitar2
e|--------------------------------------------------------------------|
B|--------------------------------------------------------------------|
G|----------------------7~----------------------7--9~---9--9p7-----7--|
D|--------------7---9-------------------7---9-------------------9-----|
A|----7--9--10----------------7--9--10--------------------------------|
E|--------------------------------------------------------------------|

end so on until the song finished.

that's all folks.
critics and comments are welcome..
Добавлено: 05.12.2013
Другие материалы по этой песне:
  • Аккорды и текст

Страница создана 05.07.2013
http://primanota.ru/incubus/surface-to-air-chords.htm
Привет, Гость.
Предлагаем пройти революционный курс по гитаре.
Подарок от PrimaNota.Ru, забирай!