PrimaNota.ru - самый крупный в мире бесплатный архив песенных текстов, аккордов, табулатур и нот


Incubus - Pendolous Threads - бас-таба, видео

Регистрация Запомнить меня
Войти через:  Facebook Google Twitter Vk Yandex Mail.ru

Incubus - Pendolous Threads - бас-таба, видео

Печатать
Просмотров: 144
SONG:Pendolous Threads
ARTIST:Incubus
ALBUM:Light Grenades

intro
|-------------------------------------------------------|
|-7-9-9-9---9-9----9----9----9----9-7-555555555---------|  x2
|-------------------------------------------------------|
|-------------------------------------------------------|

verse
|---------------------------------------------------------|
|-----0-2--2-2--2-2--2--2--2----0-2--2-2--2-2--2--2--2----|
|-0-2------------------------0-2--------------------------|
|---------------------------------------------------------|

|----------------------------------------------------|
|-----0----2-2--2-2--2--2--2--------0----------------|
|-0-2---2-----------------------0-2---2--------------|
|---------------------------------------0-0--0-0—0—0-|

|---------------------------------------------------|
|---5-----------------------------------------------|
|------2-0--0-0--0--0-0-----------------------------|
|-0--3-------------------3-5-7-5-3-3--3-3--3--3-3---|

|--------------------------------------------|
|-----------2--2--2--2------0-2--------------|
|-----------------------0-2------------------|
|-3-5-3-0-3----------------------------------|

bridge 1
|--------------------------------------------|
|-------4------------4-4-4-------------------|
|---------------2-0--------------------------|
|-0-3-0---0-3-0------------------------------|

chorus
|--11-9-------------------------|
|-------9-----------------------|
|---------7-7---7--7--7--7-10----|
|-------------------------------|

|------------------------------------------------------------------------|
|---------------------12-9-9-9-9-9-9-9-9-9-9-9-7-------------------------|
|0-5-6-7---7--7--7--10----------------------------10-10-10-10-10-10-10-10|
|------------------------------------------------------------------------|

bridge2
|-------------------------------------------------------------------------|
|-------------------------------------------------------------------------|
|-7-7-7-7-7—7-7-7-7-7-7-7-9-9-9-9-9-9-9-9-9-9-9-9-10-10-10-10-10-10-10-10-|
|-------------------------------------------------------------------------|


|--------------------------|
|-9-9-9-9-9-9-9-9-9-9-9-9--|
|--------------------------|
|--------------------------|

outro
|--12-10-------------------------|
|-------10-----------------------|
|---------8-8---8--8--8--8-11----|
|--------------------------------|

|--12-10------------------------------------------------------------------|
|-------10-------------------13-10-10-10-10-10-10-10-8--------------------|
|---------8-8---8--8--8--8-11-------------------------11-11-11-11-11-11-11|
|-------------------------------------------------------------------------|

|--------------------------|
|--------------------------|
|--8-8----8--8--8--8-11----|
|--------------------------|

|------------------------------------------------------------------|
|-----------------------13-10-10-10-10-10-10-13-13-13-10-10-10-8-8-|
|0-6-7-8---8--8--8--8-11-------------------------------------------|
|------------------------------------------------------------------|

|------------------------------------------|
|---------------------------------13----15-|
|-11-11-11-11-11-11-11-11-11-11-11---11----|
|------------------------------------------|

|--------------------------|
|--------------------------|
|--8-8----8--8--8--8-11----|
|--------------------------|

|----------------------------------------------------------15------|
|----------15-13--------------13-10-10-10-10-10-10-13-13-13--------|
|0-6-7-8--------15-13-11-8-11--------------------------------------|
|------------------------------------------------------------------|

|------------------------------------------|
|---------------------------------13----15-|
|-11---------------------------------11----|
|------------------------------------------|

I think that this tab isn't correctly at 100% but its sound is good.
Sorry for my bad english....
If you find some mistakes please notify me at quicksand83@hotmail.it

Song part:

Introduction guitar..
2x intro (with bass)
1x verse
1x bridge1
2x chorus
1x verse
2x bridge1
2x chorus
4x bridge1
4x bridge2
3x chorus
1x outro
Добавлено: 19.04.2012
Другие материалы по этой песне:
  • Аккорды и текст

Страница создана 19.04.2012
http://primanota.ru/incubus/pendolous-threads-chords.htm
Привет, Гость.
Предлагаем пройти революционный курс по гитаре.
Подарок от PrimaNota.Ru, забирай!