PrimaNota.ru - самый крупный в мире бесплатный архив песенных текстов, аккордов, табулатур и нот


Incubus - Pardon Me Correct - аккорды и текст, таба, видео

Регистрация Запомнить меня
Войти через:  Facebook Google Twitter Vk Yandex Mail.ru

Incubus - Pardon Me Correct - аккорды и текст, таба, видео

Печатать
Просмотров: 85
Pardon Me Correct
Incubus
		   Band: Incubus
Song:Pardon Me
Album: Make Yourself
tabbed by: Reinaldo González
Effects: Distortion, Echo, Phaser, Delay, Flanger

I saw Mike play guitar this song in live,,, is 100% correct

Tuning Standard: EADGBe

Intro:(Flanger/Phaser)
e---0^--0^--0^--0^--0^-------------------|
B---0^--0^--0^--0^--0^-------------------|
G---4^--4^--4^--4^--6^-------------------|
D---2^--2^--2^--2^-----------------------|
A---4^--0^--4^--0^-----------------------| X2
E----------------------------------------|

Post-Intro:(Distortion)
e--------------------0-------|
B--------------------0-------|
G--6-6-6-6-6-6-2-2-2-2-------|
D--6-6-6-6-6-6-2-2-2-2-------|
A--4-4-4-4-4-4-0-0-0-0-------|
E--4-4-4-4-4-4-0-0-0-0-------|

e----------------------------|
B----------------------------|
G--6-6-6-6-6-6-2-2-2---------|
D--6-6-6-6-6-6-2-2-2-2-------|
A--4-4-4-4-4-4-0-0-0-2-------|
E--4-4-4-4-4-4-0-0-0-0-------|

e--------------------0-------|
B--------------------0-------|
G--6-6-6-6-6-6-2-2-2-2-------|
D--6-6-6-6-6-6-2-2-2-2-------|
A--4-4-4-4-4-4-0-0-0-0-------|
E--4-4-4-4-4-4-0-0-0-0-------|

e----------------------------|
B----------------------------|
G--6-6-6-6-6-6-9-9-----------|
D--6-6-6-6-6-6-9-9-9-9-9-9---|
A--4-4-4-4-4-4-7-7-9-9-7-7---|
E--4-4-4-4-4-4-7-7-7-7-5-5---|

Verse: (Delay+Echo+Phaser)
e--------------0^-(0)-(0)-(0)--0^--0^-(0)-(0)-(0)----------|
B---7^--7^-----4^-(4)-(4)-(4)--3^--4^-(4)-(4)-(4)-4^-------|
G---4^--4^--6^-----------------2^-----------------X^-------|
D---6^--6^--5^-----------------0^-----------------X^-------|
A-------7^--6^------------------------------------2^-------|
E----------------------------------------------------->>>>-|

Pre-Chorus:(distortion)
e---------------------|
B---------------------|
G---2-2-2-2-2-2-------|
D---2-2-2-2-2-2-------|
A---0-0-0-0-0-0-------|
E---0-0-0-0-0-0-------|

Chorus: (distortion)
e---------------------------------|
B---------------------------------|
G--6-6-6-6-4-4-2-2-2--------------|
D--6-6-6-6-4-4-2-2-2-2-4-4-2-4-4--|
A--4-4-4-4-2-2-0-0-0-2-4-4-2-4-4--| X2
E--4-4-4-4-2-2-0-0-0-0-2-2-0-2-2--|

And them!
e---------------------------------|
B---------------------------------|
G--6-6-6-6-2-2-4-4-4--------------|
D--6-6-6-6-2-2-4-4-4-2-4-4-2-4-4--|
A--4-4-4-4-0-0-2-2-2-2-4-4-2-4-4--| X2
E--4-4-4-4-0-0-2-2-2-0-2-2-0-2-2--|

Bridge: (Flanger/Phaser)
e---0^--0^--0^--0^--0^-(0)-(0)----------|
B---0^--0^--0^--0^--0^-(0)-(0)----------|
G---4^--4^--4^--4^--6^-(6)-(6)----------|
D---2^--2^--2^--2^----------------------|
A---4^--0^--4^--0^----------------------| X4
E---------------------------------------|
                    ( ) 4th time-Echo
Outro: (Distortion)
e--------------------0-------|
B--------------------0-------|
G--6-6-6-6-6-6-2-2-2-2-------|
D--6-6-6-6-6-6-2-2-2-2-------|
A--4-4-4-4-4-4-0-0-0-0-------|
E--4-4-4-4-4-4-0-0-0-0-------|

e----------------------------|
B----------------------------|
G--6-6-6-6-6-6-2-2-2---------|
D--6-6-6-6-6-6-2-2-2-2-------|
A--4-4-4-4-4-4-0-0-0-2-------|
E--4-4-4-4-4-4-0-0-0-0-------|

e----------------------------|
B----------------------------|
G--6-6-6-6-6-6-9-9-----------|
D--6-6-6-6-6-6-9-9-9-9-9-9---|
A--4-4-4-4-4-4-7-7-9-9-7-7---|
E--4-4-4-4-4-4-7-7-7-7-5-5---|

e------------------------------|
B------------------------------|
G--6-6-6-6-6-6-2-2-2-----------|
D--6-6-6-6-6-6-2-2-2-2>>>>-----|
A--4-4-4-4-4-4-0-0-0-2>>>>-----|
E--4-4-4-4-4-4-0-0-0-0>>>>-----|


 The best song of all!!!     
Добавлено: 12.08.2013
Другие материалы по этой песне:
  • Аккорды и текст

Страница создана 19.06.2013
http://primanota.ru/incubus/pardon-me-correct-chords.htm
Привет, Гость.
Предлагаем пройти революционный курс по гитаре.
Подарок от PrimaNota.Ru, забирай!