PrimaNota.ru - самый крупный в мире бесплатный архив песенных текстов, аккордов, табулатур и нот


Incubus - Megalomaniac1 - таба, видео

Регистрация Запомнить меня
Войти через:  Facebook Google Twitter Vk Yandex Mail.ru

Incubus - Megalomaniac1 - таба, видео

Печатать
Просмотров: 92


Title: Megalomaniac
Artist: Incubus
Tabbed By: Vicmar "Jugmot" Saputalo
Date/Time: Jan. 4, 2005 and 12:46
 




   Try nyo tab ko astig to


Intro :

e ---------------------------------------------------------
B --------------------------------------------------------
G --------0---0---0---0---0---0---0---0---0---0------
D---------5---5---5---5---5---5---5---5---5---5------       
A---------------------------------------------------------
E ---------------------------------------------------------



e-----------------------------------------------------------
B----------------------------------------------------------
G----------------------------------------------------------
D-----------45---8-8-8-8-8-----------------------------      4x
A------------------------------5-5-5-6-6-6--------------
E----------------------------------------------------------


Chorus :
e-----------------------------------------------------------
B----------------------------------------------------------
G------------------8-------5------------------------------
D----5------8-----8-------5------------------------------        4x
A----5------8-----6-------3------------------------------
E----3------6---------------------------------------------

Verse :
e----------------------------------------------------------
B------------------4--------------------------------------
G----------------------5----------------------------------
D--------35----------------------------------------------
A---------------------------------------------------------
E---------------------------------------------------------
e-------------------------*---------------------------------
B--------------6---------*-------------8---6--------------
G--------5----------7---*----------8----------------------
D----5-------------------*-------8------------------------      4x
A--3---------------------*----6---------------------------
E-------------------------*--------------------------------




Kung may sabit add nyo na lang me sa friendster nyo jugmot@yahoo.com thanks sa wala 


Добавлено: 17.08.2013
Другие материалы по этой песне:
  • Аккорды и текст

Страница создана 17.08.2013
http://primanota.ru/incubus/megalomaniac1-chords.htm
Привет, Гость.
Предлагаем пройти революционный курс по гитаре.
Подарок от PrimaNota.Ru, забирай!