PrimaNota.ru - самый крупный в мире бесплатный архив песенных текстов, аккордов, табулатур и нот


Incubus - Make Out Party - таба, видео

Регистрация Запомнить меня
Войти через:  Facebook Google Twitter Vk Yandex Mail.ru

Incubus - Make Out Party - таба, видео

Печатать
Просмотров: 142
Уроки эстрадного вокала в Санкт-Петербурге
Band: Incubus
Album: Trust Fall (Side A) EP
Song: Make Out Party
Tuning: D standard, Drop the 6th string (C G C F A D)

============================================================================================================

Intro
D|-----------------------------------------------------------|
A|-----------------------------------------------------------|
F|---4b--------4--------6b------4b--------4-------6b---------|
C|---4b--------4--------6b------4b--------4-------6b---------|
G|-2-------2-2---2-2/4--------2-------2-2---2-2/4-------1----|
C|-2-------2-2---2-2/4--------2-------2-2---2-2/4-------1----|


Verse 1 and 2
Rhythm Guitar
         "Girl I wanna kiss...on your lips, no"
         "Babe I've got a weakness..."
D|-----------------------------------------------|
A|-----------------------------------------------|
F|---------4b------------4---------6b------------|
C|-(1)-----4b------------4---------6b------------|
G|-(1)--2----------2--2-----2-2/4----------------|
C|-(1)--2----------2--2-----2-2/4----------------|
Additional Guitar
D|----------------------------------------<7>----|
A|----------------------------------------<7>----|
F|----------------------------------------<7>----|
C|-----------------------------------------------|
G|-----------------------------------------------|
C|-----------------------------------------------|


Rhythm
   "Tips of your fingers...then at your pinky toe"
   "Honey spilt over..."
D|-------------------------------------------|
A|-------------------------------------------|
F|-(6)----4b--------4--------6b--------------|
C|-(6)----4b--------4--------6b-----------1--|
G|------2-------2-2---2-2/4---------------1--|
C|------2-------2-2---2-2/4---------------1--|
Additional Guitar
D|------------------------------------<7>----|
A|------------------------------------<7>----|
F|------------------------------------<7>----|
C|-------------------------------------------|
G|-------------------------------------------|
C|-------------------------------------------|


Rhythm
"I know you know. Can you tell...cadence and tempo"
"Let's get to work..."
D|-------------------------------------------|
A|-------------------------------------------|
F|---------4b----------4--------6b-----------|
C|-(1)-----4b----------4--------6b-----------|
G|-(1)--2---------2--2---2-2/4---------------|
C|-(1)--2---------2--2---2-2/4---------------|
Additional Guitar
D|------------------------------------<7>----|
A|------------------------------------<7>----|
F|------------------------------------<7>----|
C|-------------------------------------------|
G|-------------------------------------------|
C|-------------------------------------------|


Rhythm
"Lips are a trigger...connection we should be aiming for"
"Glistening and dangerous..."
D|-------------------------------------------|
A|-------------------------------------------|
F|-(6)----4b--------4--------6b--------------|
C|-(6)----4b--------4--------6b-----------1--|
G|------2-------2-2---2-2/4---------------1--|
C|------2-------2-2---2-2/4---------------1--|
Additional Guitar
D|------------------------------------<7>----|
A|------------------------------------<7>----|
F|------------------------------------<7>----|
C|-------------------------------------------|
G|-------------------------------------------|
C|-------------------------------------------|


Rhythm
"Could we make up?      Could we make out?"
Verse 2 skip to bridge
D|-------------------------------------------|
A|-------------------------------------------|
F|---------4b----------4--------6b-----------|
C|-(1)-----4b----------4--------6b-----------|
G|-(1)--2---------2--2---2-2/4---------------|
C|-(1)--2---------2--2---2-2/4---------------|
Additional Guitar
D|------------------------------------<7>----|
A|------------------------------------<7>----|
F|------------------------------------<7>----|
C|-------------------------------------------|
G|-------------------------------------------|
C|-------------------------------------------|


Rhythm
"Could we make up?      Could we make out?"
D|-------------------------------------------|
A|-------------------------------------------|
F|-(6)----4b--------4--------6b--------------|
C|-(6)----4b--------4--------6b-----------1--|
G|------2-------2-2---2-2/4---------------1--|
C|------2-------2-2---2-2/4---------------1--|
Additional Guitar
D|------------------------------------<7>----|
A|------------------------------------<7>----|
F|------------------------------------<7>----|
C|-------------------------------------------|
G|-------------------------------------------|
C|-------------------------------------------|


Bridge
Rhythm
"I get high every..."
"Oh, a deep sigh..."
D|--------------------------------------|
A|--------------------------------------|
F|--------------------------------------|
C|--6-6--6-6-66/9-4--4-2---4-4/1-1---2--|
G|--6-6--6-6-66/9-4--4-2---4-4/1-1---2--|
C|--6-6--6-6-66/9-4--4-2---4-4/1-1---2--|


Pre Verse
   "Ohh oh ohhhh..."
D|-----------------------------------------------------------|
A|-----------------------------------------------------------|
F|---4b--------4--------6b------4b----------------6b---------|
C|---4b--------4--------6b------4b--------2-------6b---------|
G|-2-------2-2---2-2/4--------2-------2-2-2-2-2/4-------1----|
C|-2-------2-2---2-2/4--------2-------2-2---2-2/4-------1----|


Solo
Lead
Synth arranged for guitar
Part 1
D|-/21~---19/21/19~--14/16---16/12/16/14-/19/21~-19-21-19/12--|
A|------------------------------------------------------------|
F|------------------------------------------------------------|
C|------------------------------------------------------------|
G|------------------------------------------------------------|
D|------------------------------------------------------------|
Rhythm
D|------------------------------------------------------------|
A|------------------------------------------------------------|
F|------------------------------------------------------------|
C|------------------------------------------------------------|
G|-11-----------6----------------------------9-------------2--|
D|-11-----------6----------------------------9-------------2--|

Part 2
Lead
Synth arranged for guitar
D|-/21~---19/21/19/21~-19-16~--19-14~---/16-12^14^12^14^16-9~-|
A|------------------------------------------------------------|
F|------------------------------------------------------------|
C|------------------------------------------------------------|
G|------------------------------------------------------------|
D|------------------------------------------------------------|
Rhythm
D|------------------------------------------------------------|
A|------------------------------------------------------------|
F|------------------------------------------------------------|
C|------------------------------------------------------------|
G|-11-----------------6-9-4-----/6-------2----/6----4---------|
D|-11-----------------6-9-4-----/6-------2----/6----4---------|

D|-----------------------------------------------------------|
A|-----------------------------------------------------------|
F|---4b--------4--------6b------4b----------------6b---------|
C|---4b--------4--------6b------4b--------2-------6b---------|
G|-2-------2-2---2-2/4--------2-------2-2-2-2-2/4-------1----|
C|-2-------2-2---2-2/4--------2-------2-2---2-2/4-------1----|
Добавлено: 14.11.2015
Вам также может быть интересно:
Другие материалы по этой песне:
  • Аккорды и текст

Страница создана 14.11.2015
http://primanota.ru/incubus/make-out-party-chords.htm
Привет, Гость.
Предлагаем пройти революционный курс по гитаре.
Подарок от PrimaNota.Ru, забирай!