PrimaNota.ru - самый крупный в мире бесплатный архив песенных текстов, аккордов, табулатур и нот


Incubus - Made For Tv Movie - текст песни, таба, бас-таба, видео

Регистрация Запомнить меня
Войти через:  Facebook Google Twitter Vk Yandex Mail.ru

Incubus - Made For Tv Movie - текст песни, таба, бас-таба, видео

Печатать
Просмотров: 302
made for tv movie                                               tab by max

intro/verse

----------------------------------------------------|
----------------------------------------------------|
----0--4-0-------0--4-0-----------------------------|
---2-2-5---5----2-2-5-----0-------------------------|
--3----6----6--3----6---1---------------------------|
----------------------------------------------------|

chorus (chords)

-----------------------|
-----------------------|
---------5--7----------|
---5--2--5--7-8--------|
---5--2--3--5-8--------|
---3--0-------6--------|

little solo after first chorus

-------12------------10-----------12----------------------------------------|
-10h12---12-10-10h12---8-10-10h12---12-10-8h10-8-10-------------------------|
----------------------------------------------------11-12-9-11--------------|
---------------------------------------------------------------12-14-12h14--|
----------------------------------------------------------------------------|
----------------------------------------------------------------------------|

verse

chorus

the next part is the chorus palm muted and then just played normally ('focus...')

outro

-------------------------------------------|
-------------------------------------------|
-----------------------------------0-0-0---|
--5--3------------5-5-3------------5-5-5---|
--3--1--5-----1---3-3-1-5----1-----4-4-4---|
--------3--0-3-3-0------3-0-3-3-0--5-5-5---|    x4

(chords)

------------------|
------------------|
--4--1--5--7------|
--5--2--5--7--8---|
--x--2--3--5--8---|
--3--0--------6---|   x2
Добавлено: 10.07.2012
Другие материалы по этой песне:

Страница создана 24.02.2012
http://primanota.ru/incubus/made-for-tv-movie-chords.htm
Привет, Гость.
Предлагаем пройти революционный курс по гитаре.
Подарок от PrimaNota.Ru, забирай!