PrimaNota.ru - самый крупный в мире бесплатный архив песенных текстов, аккордов, табулатур и нот


Incubus - Echo - аккорды и текст, таба, бас-таба, видео

Регистрация Запомнить меня
Войти через:  Facebook Google Twitter Vk Yandex Mail.ru

Incubus - Echo - аккорды и текст, таба, бас-таба, видео

Печатать
Просмотров: 235
Авторы музыки: Brandon Boyd, Mike Einziger, José Pasillas, Alex Katunich, Chris Kilmore
Авторы текста: Brandon Boyd, Mike Einziger, José Pasillas, Alex Katunich, Chris Kilmore
Echo
Incubus
Intro/chorus:	[-------------------------------------------------
-------------------------------------------------
---7------------------------9--------------------
---77/9-9/12-12/14-b14/12---99/12-12/9---99-b9/7-
--7-7/9-9/12-12/14-b14/12--9-9/12-12/9--9-9-b9/7-
-0------------------------7----------------------

verse:		--------------------
-7-----------5-5-----
-9---9-------7--7----
-9--9-9------7---7---
-7-7---7-----5----5--
-0------(0)--0-----(0)]

i need help with the pre chorus

solo:		[E-19-17~-14~-b12---------------------------------------------------------
B---------------15~-12-10-12--------------------13-15-13--15-17-15-17-19-
G----------------------------9-11-9~--9-11-12-14-------------------------

E-19-17-14-b12-------------------
B-------------15-12-10~~~--------
G--------------------------------

outro:		-------------
-7-----------
--9----------  strum this lightly a few times
---9---------
----7--------
-----0-------]
Добавлено: 20.01.2014
Другие материалы по этой песне:

Страница создана 13.03.2012
http://primanota.ru/incubus/echo-chords.htm
Привет, Гость.
Предлагаем пройти революционный курс по гитаре.
Подарок от PrimaNota.Ru, забирай!