PrimaNota.ru - самый крупный в мире бесплатный архив песенных текстов, аккордов, табулатур и нот


Incubus - anti - текст песни, видео

Регистрация Запомнить меня
Войти через:  Facebook Google Twitter Vk Yandex Mail.ru

Incubus - anti - текст песни, видео

Печатать
Просмотров: 170
Artist/Band: Incubus
Song/title: Summer Romance The Anti-Gravity Love Song (Acoustic Kali)
Album: When Incubus Attacks Vol.01 DVD
Tuning: E A D G B E (low to high)
Tabbed by: KuRotz
Contact: epat_skateboarding@hotmail.com

This song is also off their DVD and is also different to the MTV version that most users are tabbing so this again! is for you guys with the DVD
And if this ain't 100% authentic ladies & Gents, then shoot me now! lolz

enjoy!

Intro 1
E|-7h10-7-5h7-2-2h5-7h10-7-5h7-3-3h5--|
B|-7h10-7-5h7-2-2h5-7h10-7-5h7-3-3h5--|
G|------------------------------------|
D|------------------------------------|	
A|------------------------------------|
E|------------------------------------|3x

Breakdown
E|-7h10-xx-5h7-xx-3h5-xx-0h2-----------------|
B|-7h10-xx-5h7-xx-3h5-xx-0h2-----------------|
G|-------------------------------------------|
D|-------------------------------------------|
A|-------------------------------------------|
E|-------------------------------------------|1x

Intro 2/chorus
E|-7h10-7-5h7-2-2h5-7h10-7-5h7-3-3h5-7h10-7-5h7-2-2h5-7h10-7-5/7777777---|
B|-7h10-7-5h7-2-2h5-7h10-7-5h7-3-3h5-7h10-7-5h7-2-2h5-7h10-7-5/7777777---|
G|-----------------------------------------------------------------------|
D|-----------------------------------------------------------------------|	
A|-----------------------------------------------------------------------|
E|-----------------------------------------------------------------------|2x

Pre-verse 
E|-7-10-7------------------------------------| 
B|--------9----------------------------------|
G|----------9-7----------7---7/9-7-7---------| 
D|--------------9-7--6-9---9-----------------|
A|-------------------------------------------|
E|-------------------------------------------|

Verse
E|---------10-11-11/13-11-10/11-10----------------|
B|-7--------x--x--x/-x--x--x/-x--x--12--12121212--|
G|-7--------7--9--9/10--9--7/-9--7---x---x-x-x-x--|
D|-7---------------------------------9---9-9-9-9--|
A|-9----------------------------------------------|
E|-7----------------------------------------------|

E|---------10-11-11/13-11-10/11-10----------------|
B|-7--------x--x--x/-x--x--x/-x--x--12--101010----|
G|-7--------7--9--9/10--9--7/-9--7---x---x-x-x----|
D|-7---------------------------------9---7-7-7----|
A|-9----------------------------------------------|
E|-7----------------------------------------------|

E|---------10-11-11/13-11-10/11-10----------------|
B|-7--------x--x--x/-x--x--x/-x--x--12--101010----|
G|-7--------7--9--9/10--9--7/-9--7---x---x-x-x----|
D|-7---------------------------------9---7-7-7----|
A|-9----------------------------------------------|
E|-7----------------------------------------------|

E|-9-------12-9-10-7-5-5/7-7-9-9-9-9-9-9-----|
B|-7-------12-9-10-7-5-5/7-7-7-7-7-7-7-7-----|
G|-7-------------------------7-7-7-7-7-7-----|
D|-7---------------------------7-7-7-7-7-----|
A|-9-----------------------------9-9-9-9-----|
E|-7-----------------------------7-7-7-7-----|

Pre-chorus
E|-7-7-7-7-77---5-5-5-55---6-6-6-6-66---------7-7-7777--|
B|-8-8-8-8-88---7-7-7-77---7-7-7-7-77---7-777-8-8-8888--|
G|-7-7-7-7-77---6-6-6-66---9-9-9-9-99---7-777-9-9-9999--|
D|-9-9-9-9-99---7-7-7-77-8-8-8-8-8-88---7-777-9-9-9999--|
A|-7-7-7-7-77-5-5-5-5-55----------------9-999-7-7-7777--|
E|------------------------------------7-7-777-----------|1x

E|-7-7-7-7-77---5-5-5-55---6-6-6-6-66-------------------|
B|-8-8-8-8-88---7-7-7-77---7-7-7-7-77---7-7-7-7-7-7-7---|
G|-7-7-7-7-77---6-6-6-66---9-9-9-9-99---7-7-7-7-7-7-7---|
D|-9-9-9-9-99---7-7-7-77-8-8-8-8-8-88---7-7-7-7-7-7-7---|
A|-7-7-7-7-77-5-5-5-5-55----------------9-9-9-9-9-9-9---|
E|--------------------------------------7-7-7-7-7-7-7---|

Chorus
E|-7h10-7-5h7-2-2h5-7h10-7-5h7-3-3h5-7h10-7-5h7-2-2h5-7h10-7-5/7777777---|
B|-7h10-7-5h7-2-2h5-7h10-7-5h7-3-3h5-7h10-7-5h7-2-2h5-7h10-7-5/7777777---|
G|-----------------------------------------------------------------------|
D|-----------------------------------------------------------------------|	
A|-----------------------------------------------------------------------|
E|-----------------------------------------------------------------------|2x

Pre-verse 2
E|-------------------------------------------|
B|---------------------------7-7-7-77-7------|
G|-7-7-xx-7-7-77-------------7-7-7-77-7------|
D|-x-x-xx-x-x-xx-4-2-4-------7-7-7-77-7------|
A|-5-5-xx-5-5-55-4-2-4/12-11-9-9-9-99-9------|
E|---------------2-0-2/10--9-7-7-7-77-7------|1x

verse
E|-9-------10-11-11/13-11-10/11-10----------------|
B|-7--------x--x--x/-x--x--x/-x--x--12--101010----|
G|-7--------7--9--9/10--9--7/-9--7---x---x-x-x----|
D|-7---------------------------------9---7-7-7----|
A|-9----------------------------------------------|
E|-7----------------------------------------------|

E|---------10-11-11/13-11-10/11-10-------------xx-10/11----------------------------|
B|-7--------x--x--x/-x--x--x/-x--x--12--1010-9-xx--x/-x-12121010-9-9-9-99----------|
G|-7--------7--9--9/10--9--7/-9--7---x---x-x-x-xx--7/-9--x-x-x-x-x-x-x-xx----------|
D|-7---------------------------------9---7-7-6-----------9-9-7-7-6-6-6-66----------|
A|-9-------------------------------------------------------------------------------|
E|-7-------------------------------------------------------------------------------|

E|-------9-9---------9--12-x-10-10-12-10-10/13-12-10h12-12-12-------9-9-9-99-99----|
B|-12-12-x-x-9101111-7--12-x-10-10-12-10-10/13-12-10h12-12-12--7-77-7-7-7-77-77----|
G|--x--x-6-6-x-x-x-x-7-----------------------------------------7-77-7-7-7-77-77----|
D|--9--9-----6-7-9-9-7-----------------------------------------7-77-7-7-7-77-77----|
A|-------------------9-----------------------------------------9-99-9-9-9-99-99----|
E|-------------------7-----------------------------------------7-77-7-7-7-77-77----|

Pre-chorus
E|-7-7-7-7-77---5-5-5-55---6-6-6-6-66---------7-7-7777--|
B|-8-8-8-8-88---7-7-7-77---7-7-7-7-77---7-777-8-8-8888--|
G|-7-7-7-7-77---6-6-6-66---9-9-9-9-99---7-777-9-9-9999--|
D|-9-9-9-9-99---7-7-7-77-8-8-8-8-8-88---7-777-9-9-9999--|
A|-7-7-7-7-77-5-5-5-5-55----------------9-999-7-7-7777--|
E|------------------------------------7-7-777-----------|1x

E|-7-7-7-7-77---5-5-5-55---6-6-6-6-66-------------------|
B|-8-8-8-8-88---7-7-7-77---7-7-7-7-77---7-7-7-7-7-7-7---|
G|-7-7-7-7-77---6-6-6-66---9-9-9-9-99---7-7-7-7-7-7-7---|
D|-9-9-9-9-99---7-7-7-77-8-8-8-8-8-88---7-7-7-7-7-7-7---|
A|-7-7-7-7-77-5-5-5-5-55----------------9-9-9-9-9-9-9---|
E|--------------------------------------7-7-7-7-7-7-7---|1x

Chorus
E|-7h10-7-5h7-2-2h5-7h10-7-5h7-3-3h5-7h10-7-5h7-2-2h5-7h10-7-5/7777777---|
B|-7h10-7-5h7-2-2h5-7h10-7-5h7-3-3h5-7h10-7-5h7-2-2h5-7h10-7-5/7777777---|
G|-----------------------------------------------------------------------|
D|-----------------------------------------------------------------------|	
A|-----------------------------------------------------------------------|
E|-----------------------------------------------------------------------|2x

Pre-verse 2
E|-------------------------------------------------------------------------|
B|---------------------------7-7-7-77-7---7-7-7-77-7---7-7-7-77-7---7-7-7--|
G|-7-7-xx-7-7-77-------------7-7-7-77-7---7-7-7-77-7---7-7-7-77-7---7-7-7--|
D|-x-x-xx-x-x-xx-4-2-4-------7-7-7-77-7---7-7-7-77-7---7-7-7-77-7---7-7-7--|
A|-5-5-xx-5-5-55-4-2-4/12-11-9-9-9-99-9---9-9-9-99-9---9-9-9-99-9---9-9-9--|
E|---------------2-0-2/10--9-7-7-7-77-7---7-7-7-77-7---7-7-7-77-7---7-7-7--|1x

Solo
E|--10/1111-1010/11-1111-1010/11-1111-------------------------------------------------------
B|---x/-x-x--x-x/-x--x-x--x-x/-x--x-x-10-1010-10-1010-10-1010-------------------------------
G|---7/-9-9--7-7/-9--9-9--7-7/-9--9-9--x--x-x--x--x-x--x--x-x-9-9/10-9-7-9-9/10-9-7/9-9-9---
D|-------------------------------------7--7-7--7--7-7--7--7-7-x-x/-x-x-x-x-x/-x-x-x/x-x-x---
A|------------------------------------------------------------7-7/-8-7-5-7-7/-8-7-5/7-7-7---
|-------------------------------------------------------------------------------------------

E|------1010/1111-13-13-13-12-10-12-13-12-10/12-12--------------------------------
B|-------x-x/-x-x--x--x--x--x--x--x--x--x--x/-x--x-1010-1212-x-10-12-1212---------
G|---9---7-7/-9-9-10-10-10--9--7--9-10--9--7/-9--9--x-x--x-x-x--x--x--x-x---------
D|-9-x----------------------------------------------7-7--9-9-x--7/-9--9-9---------
A|-7-7-0--------------------------------------------------------------------------
E|-7------------------------------------------------------------------------------

E|-101010101010101010-11111111-14-14-14-14-14-14---|
B|--x-x-x-x-x-x-x-x-x--x-x-x-x--x--x--x--x--x--x---|
G|--7-7-7-7-7-7-7-7-7/-9-9-9-9-11-11-11-11-11-11---|
D|-------------------------------------------------|
A|-------------------------------------------------|
E|-------------------------------------------------|

Pre-chorus
E|-7-7-7-7-77---5-5-5-55---6-6-6-6-66---------7-7-7777--|
B|-8-8-8-8-88---7-7-7-77---7-7-7-7-77---7-777-8-8-8888--|
G|-7-7-7-7-77---6-6-6-66---9-9-9-9-99---7-777-9-9-9999--|
D|-9-9-9-9-99---7-7-7-77-8-8-8-8-8-88---7-777-9-9-9999--|
A|-7-7-7-7-77-5-5-5-5-55----------------9-999-7-7-7777--|
E|------------------------------------7-7-777-----------|1x

E|-7-7-7-7-77---5-5-5-55---6-6-6-6-66-------------------|
B|-8-8-8-8-88---7-7-7-77---7-7-7-7-77---7-7-7-7-7-7-7---|
G|-7-7-7-7-77---6-6-6-66---9-9-9-9-99---7-7-7-7-7-7-7---|
D|-9-9-9-9-99---7-7-7-77-8-8-8-8-8-88---7-7-7-7-7-7-7---|
A|-7-7-7-7-77-5-5-5-5-55----------------9-9-9-9-9-9-9---|
E|--------------------------------------7-7-7-7-7-7-7---|1x

Chorus
E|-x-x-xxxx-7h10-7-5h7-2-2h5-7h10-7-5h7-3-3h5-7h10-7-5h7-2-2h5-7h10-7-5/7777777---|
B|-x-x-xxxx-7h10-7-5h7-2-2h5-7h10-7-5h7-3-3h5-7h10-7-5h7-2-2h5-7h10-7-5/7777777---|
G|-x-x-xxxx-----------------------------------------------------------------------|
D|-x-x-xxxx-----------------------------------------------------------------------|	
A|--------------------------------------------------------------------------------|
E|--------------------------------------------------------------------------------|1x

E|-7h10-7-5h7-2-2h5-7h10-7-5h7-3-3h5-7h10-7-5h7-2-2h5-7h10-7-5/7777777---|
B|-7h10-7-5h7-2-2h5-7h10-7-5h7-3-3h5-7h10-7-5h7-2-2h5-7h10-7-5/7777777---|
G|-----------------------------------------------------------------------|
D|-----------------------------------------------------------------------|	
A|-----------------------------------------------------------------------|
E|-----------------------------------------------------------------------|1x

End riff
E|------------------------------------------9-------9---|
B|---------------------------------------7--7-------7---|
G|-7-7-xx-7-7-77-----------------------7----7-------7---|
D|-x-x-xx-x-x-xx-4-2-4---------------7------7-------7---|
A|-5-5-xx-5-5-55-4-2-4/12-11~------9--------9-------9---|
E|---------------2-0-2/10--9~----7----------7-------7---|1x

That's it!
Shoutout to mcud & MuNkY!
Добавлено: 15.11.2013
Другие материалы по этой песне:
  • Текст (слова)

Страница создана 15.11.2013
http://primanota.ru/incubus/anti-lyrics.htm
Привет, Гость.
Предлагаем пройти революционный курс по гитаре.
Подарок от PrimaNota.Ru, забирай!