PrimaNota.ru - самый крупный в мире бесплатный архив песенных текстов, аккордов, табулатур и нот


Incense - Starlet - таба, видео

Регистрация Запомнить меня
Войти через:  Facebook Google Twitter Vk Yandex Mail.ru

Incense - Starlet - таба, видео

Печатать
Просмотров: 69
Band:Incense
Song:Starlet
Tuning:standard
Tabbed by: $@nder
Intro
E|----------------------------------|
B|----------------------------------|
G|----------------------------------|
D|----------------------------------|
A|-7-7-7-7-7-7-7-7-9-9-9-9-9-9-9-9--|
E|-0-0-0-0-0-0-0-0-0-0-0-0-0-0-0-0--|
E|-------------------------------------------------|
B|-------------------------------------------------|
G|-------------------------------------------------|
D|-------------------------------------------------|
A|-14-14-14-14-14-14-14-14-15-15-15-15-15-14-15-14-|
E|-0--0--0--0--0--0--0--0--0--0--0--0--0--0--0--0--|
Chorus
E|-----------------------------------------|
B|-----------------------------------------|
G|-9-9-9-9-9-9-9-9-12-12-12-12-12-12-12-12-|
D|-9-9-9-9-9-9-9-9-12-12-12-12-12-12-12-12-|
A|-7-7-7-7-7-7-7-7-10-10-10-10-10-10-10-10-|
E|-----------------------------------------|
E|---------------------------------|
B|---------------------------------|
G|-5-5-5-5-5-5-5-5-5-5-5-5-5-5-5-5-|
D|-5-5-5-5-5-5-5-5-5-5-5-5-5-5-5-5-|
A|-3-3-3-3-3-3-3-3-3-3-3-3-3-3-3-3-|
E|---------------------------------|
Bridge 1
E|-------0-------0--0-0-----|
B|-------0-------0--0-0-----|
G|-------9-------11-7-7-----|
D|-9-9-9-9-9-9-9-11-7-7-----|
A|-7-7-7-7-7-7-7-9--5-5-----|
E|--------------------------|
Bridge 2(during talk)
E|------------------------------------|
B|------------------------------------|
G|------------------------------------|
D|------------------------------------|
A|-15-14-12-repeat this lots of times-|
E|------------------------------------|
Part 2(play chords real fast with up & down strokes)
E|-----------------------|
B|-----------------------|
G|-9-12-16-17------------|
D|-9-12-16-17------------|
A|-7-10-14-15------------|
E|-----------------------|
That's it I think it's played on a twelve string but this sounds good 2!
If you don't know incense or this song you can download it from
www.incense.nl

     
Добавлено: 13.11.2013
Другие материалы по этой песне:
  • Аккорды и текст

Страница создана 13.11.2013
http://primanota.ru/incense/starlet-chords.htm
Привет, Гость.
Предлагаем пройти революционный курс по гитаре.
Подарок от PrimaNota.Ru, забирай!