PrimaNota.ru - самый крупный в мире бесплатный архив песенных текстов, аккордов, табулатур и нот


Incantation - Demonic Incarnate - текст песни, таба, видео

Регистрация Запомнить меня
Войти через:  Facebook Google Twitter Vk Yandex Mail.ru

Incantation - Demonic Incarnate - текст песни, таба, видео

Печатать
Просмотров: 147
Уроки эстрадного вокала в Санкт-Петербурге
INCANTATION: DEMONIC INCARNATE

from their excellent album

"Mortal Throne of Nazarene"

Without a doubt, this is my absolute favorite song by Incantation.
Everything I love about Incantation is here in this one track. 
The riffs should be pretty damn accurate, but, if there is improvement
to be made, don't hesitate to e-mail me corrections at 
tomseckman@yahoo.com



                        ~ = heavy vibrato


riff A
|-------------------------------------------------------------------------|
|-------------------------------------------------------------------------|
|1010101010101010-6-6-6-6-6-6-6-6-8-8-8-8-9-9-9-9-9-9-9-9-5-5-5-5-5-5-5-5-|
|-8-8-8-8-8-8-8-8-4-4-4-4-4-4-4-4-6-6-6-6-7-7-7-7-7-7-7-7-3-3-3-3-3-3-3-3-|
|-8-8-8-8-8-8-8-8-4-4-4-4-4-4-4-4-6-6-6-6-7-7-7-7-7-7-7-7-3-3-3-3-3-3-3-3-|
|-------------------------------------------------------------------------|

riff A1
|-----------------------------------------------------------------|
|-----------------------------------------------------------------|
|1010101010101010-6-6-6-6-6-6-6-6-5-5-5-5-5-5-5-5-8-8-8-8-8-8-8-8-|
|-8-8-8-8-8-8-8-8-4-4-4-4-4-4-4-4-3-3-3-3-3-3-3-3-6-6-6-6-6-6-6-6-|
|-8-8-8-8-8-8-8-8-4-4-4-4-4-4-4-4-3-3-3-3-3-3-3-3-6-6-6-6-6-6-6-6-|
|-----------------------------------------------------------------|

riff B
|--------------------------------------|
|--------------------------------------|
|--------------------------------------|
|-------------777------555------333555-|
|----555---555---888333---666555-------|
|-333---666----------------------------|

riff B1                           1st time      2nd time            
|--------------------------------|-------------|-----------------|
|--------------------------------|-------------|-----------------|
|--------------------------------|-------------|-----------------|
|-------------777888---888999----|-999101010---|-101010999-------|
|----555---555------777------888-|---------999-|----------101010-|
|-333---666----------------------|-------------|-----------------|

fill
|------|
|------|
|------|
|-3~---|
|-3~---|
|-1~---|

riff C                           1st time         2nd time
|-------------------------------|----------------|---------|
|-------------------------------|----------------|---------|
|-------------------------------|----------------|---------|
|-9-8-3~----9-8-4--3------9-8-3-|-9-8-4--8-------|-9-8-4-8-|
|-9-8-3~----9-8-4--3------9-8-3-|-9-8-4--8-------|-9-8-4-8-|
|-7-6-1~----7-6-2--1--2~~-7-6-1-|-7-6-2--6--2~~--|-7-6-2-6-|

riff D
|----------------------------------------------|
|----------------------------------------------|
|----------------------------------------------|
|----6--7-6----4--3-4----2-----6--7-6----4-----|
|-5--4--5-4-7--2--1-2-3--0--5--4--5-4-7--2---3-|
|-3---------5---------1-----3---------5------1-|

riff E
|-------------------------------|
|-------------------------------|
|-------------------------------|
|-------------------------------|
|-4-3-----1-0---4-3-----1-0-----|
|-2---4-3-------2---4-3-----1-3-|

riff F (guitar one)
|---------------------------------------------------|      
|---------------------------------------------------|
|---------------------------------------------------|
|-2-----------------------------------------------2-|   
|-2-----------2----------------------4------------2-|
|-0---------------3--4--3-------------------2--3--0-|
                                                  |------do not play this at end of song
riff F1 (guitar two)
|------------------------------------------------|
|------------------------------------------------|
|------------------------------------------------|
|------------------------------------------------|
|-------------2-----------------------2----------|
|-0--3--4--0-----4--3--4--0--3--4--0-----4--3--4-|
Can you say "evil as fuck"?

riff G (play twice)        riff G1 (play twice)
|-------------------------|-------------------------|
|-------------------------|-------------------------|
|-------------------------|-------------------------| (not too sure about this part)
|-------------------------|-------------------------|
|---3-2---4-3---3-2---4-3-|---3-2---6-5---3-2---6-5-|
|-2-----2-----2-----2-----|-4-----4-----4-----4-----|

riff H (play twice)        riff H1 (play twice)
|-------------------------|-------------------------|
|-------------------------|-------------------------|
|---5-4---6-5---5-4---6-5-|---7-6---8-7---7-6---8-7-| (ditto)
|-4-----4-----4-----4-----|-6-----6-----6-----6-----|
|-------------------------|-------------------------|
|-------------------------|-------------------------|

Riff order:

riff a+a1 x2
riff b+b1 x2
fill
riff c    x2
riff a+a1 x1
riff b+b1 x2
riff d    x3
riff e    x4
riff f+f1 x8(together)
riff e    x4
riff g    x2
riff g+g2 x3
riff h+h1 x2(with riff g+g2 underneath)
riff f    x2

tabbed by Lord Skeletor

GO SACRIFICE A GOAT!!!!!
Добавлено: 04.05.2012
Другие материалы по этой песне:
  • Аккорды и текст

Страница создана 25.02.2012
http://primanota.ru/incantation/demonic-incarnate-chords.htm
Привет, Гость.
Предлагаем пройти революционный курс по гитаре.
Подарок от PrimaNota.Ru, забирай!