PrimaNota.ru - самый крупный в мире бесплатный архив песенных текстов, аккордов, табулатур и нот


Incandescent Fish - Afraid - таба, видео

Регистрация Запомнить меня
Войти через:  Facebook Google Twitter Vk Yandex Mail.ru

Incandescent Fish - Afraid - таба, видео

Печатать
Просмотров: 63
INCANDESCENT FISH
Afraid
------------------
I figured this out.
Submitted by B.D.Squeeks
Created by Brian Dwyer
normal tuning
/slide
*let ring
also for power chords: "#" = 11th fret

intro
e-------------------------------------------
B-------------------------------------------
G-------------------------------------------
D-------------------------------------------
A----7----7-7---6---6-6---7---7-7---6---6-6-
E-0-0--0-0-0-7-7-7-7-7-9-9-9-9-9-4-4-4-4-4--X4

then
A----7---7-7---9---9-9---6---6-6/7----
E-0-0-0-0-0-7-7-7-7-7-4-4-4-4-4*/5---

VerseI:kick in some distortion-pick fast on these- like up and down
A------------------------------------------------|
E00000000000000007777777777777777444444444444444455555555555 55555-------|   X2

A---|
E0000000000000000777777777777777799999999999999994444444444444444
| X2

then power chords
D-22222222999999996666666644444444
A-22222222999999996666666644444444
E-00000000777777774444444422222222

D-2222222299999999666666664*
A-2222222299999999666666664*
E-0000000077777777444444442*

then
e-------------------------------------------
B-------------------------------------------
G-------------------------------------------
D-------------------------------------------
A----7----7-7---6---6-6---7---7-7---6---6-6-
E-0-0--0-0-0-7-7-7-7-7-9-9-9-9-9-4-4-4-4-4--X2

A----7---7-7---9---9-9---6---6-6/7----7---77
E-0-0-0-0-0-7-7-7-7-7-4-4-4-4-4*/5-5-5-5-5-5-0

A----7---7-7---9---9-9---6---6-6/7-
E-0-0-0-0-0-7-7-7-7-7-4-4-4-4-4*/5-

VerseII-same as verseI:distortion
except instead of power chords you do a solo
B|-9-9-9-9-9-9-9-9-11-11-11-11-11-11-11-11-4-4-4-4-4-4-4-4

7-7-7-6-6-6-4-0-9-9-9-9-9-9-9-9-11-11-11-11-11-11-11-11-4-4-

4-4-4-4-4-4-2-2-2-4-4-4-2-4-|X2

then to power chords for the ending
D-22222222999999996666666644444444|
A-22222222999999996666666644444444|
E-00000000777777774444444422222222|X2

D-2222222299999999########66666666
A-2222222299999999########44444444
E-00000000777777779999999922222222

D-22222222999999994*
A-22222222999999994*
E-00000000777777772*
     
Добавлено: 06.08.2013
Другие материалы по этой песне:
  • Аккорды и текст

Страница создана 06.08.2013
http://primanota.ru/incandescent-fish/afraid-chords.htm
Привет, Гость.
Предлагаем пройти революционный курс по гитаре.
Подарок от PrimaNota.Ru, забирай!