PrimaNota.ru - самый крупный в мире бесплатный архив песенных текстов, аккордов, табулатур и нот


In This Moment - Daddys Falling Angel - текст песни, таба, видео

Регистрация Запомнить меня
Войти через:  Facebook Google Twitter Vk Yandex Mail.ru

In This Moment - Daddys Falling Angel - текст песни, таба, видео

Печатать
Просмотров: 230
-------------------------------------------------------------------------------
                            Daddy's Falling Angel - In This Moment
-------------------------------------------------------------------------------
Tabbed by: Ryan Kane
Email: Papaseed52290@yahoo.com

I have this song tabbed out in several pieces.
I don't have the chorus, but i can tell you the intro and verse.
If anyone gets the chorus tell me!
Tuning: C#
C#|------------------------------------------------------------------------------|
G#|------------------------------------------------------------------------------|
E-|-7-7------------0h2p0-------7-7-----------------------------------------------|
B-|-7-7--3-3p2---2-------0h2-3--7-7-3-3p2--3-3-7-5p0-----------------------------|
F#|-5-5--------5------------------5-5--------5-3-8-7-----------------------------|
C#|------------------------------------------------------------------------------|

Verse:
From what i can tell...
Repeat this first part until about 30 seconds. Then the second riff kicks in which is...
C#|-------------------------|----------|-------------------------------------------------|
G#|-------------------------|----------|-------------------------------------------------|
E-|--7----------7-----------|----------|-----------7----0h2p0----7-----------7-----------|
B-|--7----------7-----------|-3-3-7-5--|--3-3p2p0--7--3-------2--7--3-3p2p0--7--7-7-3-3--|
F#|--5----------5-----------|-3-5-8-7--|-----------5-------------5-----------5--8-8-3-3--|
C#|---0-000-000---0-000-000-|----------|-------------------------------------------------|
      . ... ...   . ... ...

For the chorus, i can only gather the rhythm guitar.
And i'm not 100% on it, but it's a good guess.
Do the first section twice and then kick into the second riff, repeating the chord
times until the 3rd section.
C#|-------------------------------------------------------|----|---------------------|
G#|-------------------------------------------------------|----|---------------------|
E-|-7-----------------------------------------------------|-10-|---------------------|
B-|-7-----------7-----------3-----------7-----3-0-0-------|-x--|--------7-------3----|
F#|-5-5-5-5-5-5-8-8-8-8-8-8-3-3-3-3-3-3-8-8-8-3-0-0-------|-8--|--------8-------3----|
C#|-------------------------------------------------------|----|--0-0-0---0-0-0------|
      . . . . .   . . . . .   . . . . .   . .   . .

Breakdown
C#|--------------------------------------------------------------------------------|
G#|--------------------------------------------------------------------------------|
E|---------------------------------------------------------------------------------|
B|--7---------------3-2-------7-----------------3-2----------------------3-2-------|
F#|-7-------5--7--------3-5~--7---------------------3-5~---------5--7---------3----|
C#|-5-000-00-00-000-----------5--000-000-000-000-----------000-00-00-000-----------|

-------------------------------|
-------------------------------|
-------------------------------|
-----------------3-2-----------|
5*---------------------3-5*----|
-000-000--000--000-------------|

For the rhythm of the solo, do the chorus.

If you can find the lead of the chorus tell me!

| /  slide up
| \  slide down
| h  hammer-on
| p  pull-off
| ~  vibrato
| +  harmonic
| x  Mute note
===============================================================================
Добавлено: 05.06.2012
Другие материалы по этой песне:

Страница создана 02.03.2012
http://primanota.ru/in-this-moment/daddys-falling-angel-chords.htm
Привет, Гость.
Предлагаем пройти революционный курс по гитаре.
Подарок от PrimaNota.Ru, забирай!