PrimaNota.ru - самый крупный в мире бесплатный архив песенных текстов, аккордов, табулатур и нот


In The Midst Of Lions - The Machine - таба, видео

Регистрация Запомнить меня
Войти через:  Facebook Google Twitter Vk Yandex Mail.ru

In The Midst Of Lions - The Machine - таба, видео

Печатать
Просмотров: 179
Уроки эстрадного вокала в Санкт-Петербурге
[The Machine]
[The Heart Of Man]
[In The Midst Of Lions]

Tuning: CGCFAD (Drop C / 1 Step Down From Drop D)
joshuaoliveira@hotmail.com

As Requested By: Alpha_Wolf

[Riff 1a, Guitar 1 & 2] - [00:00] - [00:11-| - [3x]
- -----------------------------------------|
- -----------------------------------------|
- ---------------------------0-------------|
- -5---------5-------------4---4-----------|
- -5---------5-----------------------------|
- -5-0-4~----5-0-4~----0h4-------4---------|
PM   .         .
-
- ---------------------------------|
- ---------------------------------|
- ---------------------------------|
- ---------------------------------|
- ---------------------------------|
- -8-0-7~----8-0-7~----4~----------|
PM   .         .

[Riff 1b, Guitar 1 & 2] - [00:11] - [00:15]
- ---------------------------------|
- ---------------------------------|
- ---------------------------------|
- -5---------5---------------------|
- -5---------5---------0-1-4-5-----|
- -5-0-4~----5-0-4~----0-1-4-5-----|
PM   .         .       .......
-
- ---------------------------------|
- ---------------------------------|
- ---------------------------------|
- ---------------------------------|
- ---------------------0-1-4-5-----|
- -8-0-7~----8-0-7~----0-1-4-5-----|
PM   .         .       .......

----------------------------------------------------------------------------

[Riff 1a, Guitar 1] - [00:15] - [00:26] - [3x]

[Riff 2a] - [00:15] - [00:26----------------| - [3x]
- ------------------------------------------|
- ------------------------------------------|
- -12\11-11----8\7-7-----15\14-14\12-12\11--|
- -x--x--x-----x-x-x-----x--x--x--x--x--x---|
- -10\9--9-----6\5-5-----13\12-12\10-10\9---|
- ------------------------------------------|

[Riff 1b, Guitar 1] - [00:26] - [00:29]

[Riff 2a] - [00:26] - [00:29]
- -----------------------------------|
- -----------------------------------|
- -12\11-11----8\7-7-----------------|
- -x--x--x-----x-x-x-----------------|
- -10\9--9-----6\5-5-----0-1-4-5-----|
- -----------------------0-1-4-5-----|
PM                       .......

----------------------------------------------------------------------------

[Riff 3] - [00:29] - [00:44-----------------------------------------| - [2x]
- ------------------------------------------------------------------|
- ------------------------------------------------------------------|
- ---------------------------------------------------------0~-------|
- -------4-----------------------------4---------------4~----4~-----|
- -0-1-0-2-0-1-1-1-1-1-1-1-1-4-5-4-1-0-2-0-1-1-1-1-1-----0----------|
- -0-1-0---0-1-1-1-1-1-1-1-1-4-5-4-1-0---0-1-1-1-1-1-4~--0-----1~---|
PM .....   ...........................   ...........     .

----------------------------------------------------------------------------

[Riff 4] - [00:44] - [01:14]
- --------------------------------------------------------------------|
- --------------------------------------------------------------------|
- ---------------------------------------------------------------[3b]-|
- --------------------------------------------------------------------|
- -----0---0-0-0-----0-0-----0-0-----0-0---0-0-0-----0-0-----0-0------|
- -1b--1---1-1-1-1b--1-1-1b--1-1-1b--1-1---1-1-1-1b--1-1-1b--1-1------|
PM     .........     ...     ...     ...........     ...     ...

- ------------------------------------------------------------------|
- ------------------------------------------------------------------|
- ------------------------------------------------------------------|
- ------------------------------------------------------------------|
- ---0-0---0-0-0-----0-0-----0-0-----0-0---0-0-0-----0-0-----0-0----|
- ---0-0---0-0-0-0---0-0-0---0-0-0---0-0---0-0-0-0---0-0-0---0-0-1b-|
PM   ...........     ...     ...     ...........     ...     ...

- --------------------------------------------------------------------|
- --------------------------------------------------------------------|
- ---------------------------------------------------------------[3b]-|
- --------------------------------------------------------------------|
- ---0-0---0-0-0-----0-0-----0-0-----0-0---0-0-0-----0-0-----0-0------|
- ---1-1---1-1-1-1b--1-1-1b--1-1-1b--1-1---1-1-1-1b--1-1-1b--1-1------|
PM   ...........     ...     ...     ...........     ...     ...

- -----------------------------------------------------------------|
- -----------------------------------------------------------------|
- -----------------------------------------------------------------|
- -----------------------------------------------------------------|
- ---0-0---0-0-0-----0-0-----0-0-----0-0---0-0-0-----0-0-----0-----|
- ---0-0---0-0-0-0---0-0-0---0-0-0---0-0---0-0-0-0---0-0-0---0-0---|
PM   ...........     ...     ...     ...........     ...     .

----------------------------------------------------------------------------

[Riff 5] - [01:14] - [01:18]
- ---------------------------------|
- ---------------------------------|
- ---------------------------------|
- -1-----4---------5~----0~--------|
- -1-----4---------5~----0~--------|
- -1-----4---------5~----0~--------|

[Riff 6] - [01:14] - [01:26-------------------------------------------| - [3x]
- --------------------------------------------------------------------|
- --------------------------------------------------------------------|
- ---------------------------------12--12--12--12/14-11--11--11--11---|
- -8---8---8---7---7---7---7---7-----8---8---8---------0---0---0---0--|
- ---6---6---6---9---9---9---9---9------------------------------------|
- --------------------------------------------------------------------|
PM   .   .   .   .   .   .   .   .   .   .   .         .   .   .   .

[Riff 7] - [01:18] - [01:26---------| - [2x]
- ----------------------------------|
- ----------------------------------|
- ----------------------------------|
- ----------------------------------|
- ----------------------------------|
- -1-----4---------5-----0----------|
AP ...............................

[Riff 8a] - [01:26] - [01:33----------------------------------------| - [2x]
- ------------------------------------------------------------------|
- ------------------------------------------------------------------|
- ---------------------------------7---7---7---7/8-7---7---7---7----|
- -5---5---5---4---4---4---4---4-----5---5---5-------7---7---7---7--|
- ---3---3---3---5---5---5---5---5----------------------------------|
- ------------------------------------------------------------------|
PM   .   .   .   .   .   .   .   .   .   .   .       .   .   .   .

[Riff 8b] - [01:26] - [01:33-------------------------------------------| - [2x]
- ---------------------------------------------------------------------|
- ---------------------------------------------------------------------|
- ---------------------------------15--15--15--15/17-14--14--14--14----|
- -12--12--12--12--12--12--12--12----12--12--12------------------------|
- ---10--10--10--12--12--12--12--12--------------------12--12--12--12--|
- ---------------------------------------------------------------------|
PM   ..  ..  ..  ..  ..  ..  ..  ..  ..  ..  ..        ..  ..  ..  ..

----------------------------------------------------------------------------

[Riff 9, Guitar 1 & 2] - [01:33] - [01:41]
- -----------------------------------------------------------------|
- -----------------------------------------------------------------|
- -----------------------------------------------------------------|
- -8-7-5---5-7-8-7-7-5-4---4-5-7-5-8-7-5---5-7-8-7-5~----7-4~------|
- -------6---------------5---------------6-------------------------|
- -----------------------------------------------------------------|
AP ................................................
-
- ------------------------------------------------------------------|
- ------------------------------------------------------------------|
- -7-5-------5-7-5-5-----------5---7-5-------5-7-5-------5----------|
- -----8-5-8---------8-7-4-7-8---8-----8-5-8-------8~------7~-------|
- ------------------------------------------------------------------|
- ------------------------------------------------------------------|
AP ................................................

----------------------------------------------------------------------------

[Riff 10] - [01:41] - [01:57]
- -----------------------------------------------------------------|
- -----------------------------------------------------------------|
- -----------------------------------------------------------------|
- -0-----1~----------1~------------0-----1~------------------------|
- -0---0-0~--------------0~--------0---0-0~--------------0-0--0--0-|
- -0---0-1~------------------------0---0-1~--------------1-1--1--1-|
PM     .                               .                 .........

- -----------------------------------------------------------------|
- -----------------------------------------------------------------|
- -----------------------------------------------------------------|
- -0-----1~----------1~------------0-----1~------------------------|
- -0---0-0~--------------0~--------0---0-0~----------4-4-4-4-4-4-4-|
- -0---0-1~------------------------0---0-1~----------4-4-4-4-4-4-4-|
PM     .                               .             .............

[Riff 11a] - [01:41] - [01:57]
- ------------------------------------------------------------------|
- ------------------------------------------------------------------|
- ---5p3-----------------------------5p3----------------------------|
- -77---7--5-4~--------------------77---7--5-4~----5/--12~----------|
- ------------------------------------------------------------------|
- ------------------------------------------------------------------|
PM ..                              ..

- ------------------------------------------------------------------|
- ------------------------------------------------------------------|
- ---5p3-----------------------------5p3---------------------11~----|
- -77---7--5-4~--------------------77---7--5-4~----5/--12~----------|
- ------------------------------------------------------------------|
- ------------------------------------------------------------------|
PM ..                              ..

[Riff 11b] - [01:41] - [01:57]
- ------------------------------------------------------------------|
- ------------------------------------------------------------------|
- -55-5p3-5--3-2~------------------55-5h7-5-3-2~---3/--11~----------|
- ------------------------------------------------------------------|
- ------------------------------------------------------------------|
- ------------------------------------------------------------------|
PM ..                              ..

- ------------------------------------------------------------------|
- -----------------------------------------------------------10~----|
- -55-5p3-5--3-2~------------------55-5h7-5-3-2~---3/--11~----------|
- ------------------------------------------------------------------|
- ------------------------------------------------------------------|
- ------------------------------------------------------------------|
PM ..                              ..

----------------------------------------------------------------------------

[Riff 3] - [01:57] - [02:12] - [2x]

[Riff 12, Guitar 1 & 2] - [01:57] - [02:12---------------------------| - [2x]
- -------------------------------------------------------------------|
- -------------------------------------------------------------------|
- -------------------------------------------------------------------|
- -7br-------------------------------------------------4-------------|
- -------------------------------------------------------------------|
- -------------------------------------------------------------------|
AP ................................................................
-
- ------------------------------------------------------------------|
- ------------------------------------------------------------------|
- ------------------------------------------------------------------|
- -10br------------------------------------------------7------------|
- ------------------------------------------------------------------|
- ------------------------------------------------------------------|
AP ................................................................

alternate pick the first note and slowly bend and release until 1/4 way
into the 4th bar then alternate pick the last note. listen carefully
for it

----------------------------------------------------------------------------

[Riff 1b, Guitar 1] - [02:12] - [02:15]
[Riff 1a, Guitar 1] - [02:15] - [02:30] - [4x]

----------------------------------------------------------------------------

[Riff 13] - [02:30] - [02:37]
- -----------------------------------------------------------------|
- -----------------------------------------------------------------|
- -----------------------------------------------------------------|
- -----------------------------------------------------------------|
- -------------------------------------------------------111--1--1-|
- -1-1-------1-1---------1-1-1-----0-0-------0-0---------000--0--0-|
PM                                                       .........

----------------------------------------------------------------------------

[Riff 14] - [02:37] - [02:52-----------------------------------------| - [2x]
- -------------------------------------------------------------------|
- -----[3b]------[3b]----------[3b]----------------------------------|
- -------------------------------------[3b]------[3b]----------[3b]--|
- -------------------------------------------------------------------|
- -111-------111---------11111-----111-------111---------11111-------|
- -111-------111---------11111-----000-------000---------00000-------|
PM ...       ...         .....     ...       ...         .....

no pinch on 12th one.

----------------------------------------------------------------------------

[Riff 15] - [02:52] - [03:13----------------------------------------| - [2x]
- ------------------------------------------------------------------|
- ------------------------------------------------------------------|
- ------------------------------------------------------------------|
- ------------------------------------------------------------------|
- -111-------111---------11111-----111-------111---------11111------|
- -111-------111---------11111-----000-------000---------00000------|
PM ...       ...         .....     ...       ...         .....

[Riff 16, Guitar 1 & 2] - [02:52] - [03:13----------| - [2x]
- -17-------17-------17-------17-------17-------17--|
- ----15-15----15-15----15-15----15-15----15-15-----|
- --------------------------------------------------|
- --------------------------------------------------|
- --------------------------------------------------|
- --------------------------------------------------|
-
- -14-------14-------14-------14-------14-------14-|
- ----10-10----10-10----10-10----10-10----10-10----|
- -------------------------------------------------|
- -------------------------------------------------|
- -------------------------------------------------|
- -------------------------------------------------|


- -18-------18-------18-------18-------18----------|
- ----15-15----15-15----15-15----15-15----15-16----|
- ----------------------------------------------17-|
- -------------------------------------------------|
- -------------------------------------------------|
- -------------------------------------------------|
-
- -15-------15-------15-------15-------15----------|
- ----10-10----10-10----10-10----10-10----11-13----|
- ----------------------------------------------14-|
- -------------------------------------------------|
- -------------------------------------------------|
- -------------------------------------------------|

----------------------------------------------------------------------------

[Symbols]

PM... Palm Mute notes with (...) under them
AP... Alternate Pick notes with (...) under them
~     Let Ring
h     Hammer On
p     Pull Off
b     Bend
r     Release Bend
x     Dead Note
\     Slide Down
/     Slide Up
[ ]   Pinch Harmonic

:)
Добавлено: 12.04.2012
Другие материалы по этой песне:

Страница создана 12.04.2012
http://primanota.ru/in-the-midst-of-lions/the-machine-chords.htm
Привет, Гость.
Предлагаем пройти революционный курс по гитаре.
Подарок от PrimaNota.Ru, забирай!