PrimaNota.ru - самый крупный в мире бесплатный архив песенных текстов, аккордов, табулатур и нот


In The Midst Of Lions - Fearless - таба, видео

Регистрация Запомнить меня
Войти через:  Facebook Google Twitter Vk Yandex Mail.ru

In The Midst Of Lions - Fearless - таба, видео

Печатать
Просмотров: 95
[Fearless]
[The Heart Of Man]
[In The Midst Of Lions]

Tuning: CGCFAD (Drop C)
As Requested By: Alpha_Wolf

3/4 Time

[Riff 1a, Guitar 1 & 2] - [00:00] - [00:43]
- -------------------------------------------------------------------------------------------------|
- -------------------------------------------------------------------------------------------------|
- -0~------------------------------0~----------------------11~----------------------12~------------|
- -----4~----------------------4~----------------------0~-----------------------0~-----------------|
- ---------6~--------------3~----------------------9~----------------------10~---------------------|
- -------------------------------------------------------------------------------------------------|
- second guitar with no distortion
- -------------------------------------------------------------------------------------------------|
- -------------------------------------------------------------------------------------------------|
- -0~------------------------------0~----------------------11~----------------------12~------------|
- -----4~----------------------4~----------------------0~-----------------------0~-----------------|
- ---------6~--------------3~----------------------9~----------------------10~---------------------|
- -------------------------------------------------------------------------------------------------|


- -------------------------------------------------------------------------------------------------|
- -------------------------------------------------------------------------------------------------|
- -0~------------------------------0~----------------------11~----------------------12~------------|
- -----4~----------------------4~----------------------0~-----------------------0~-----------------|
- ---------6~--------------3~----------------------9~----------------------10~---------------------|
- -------------------------------------------------------------------------------------------------|
-
- -------------------------------------------------------------------------------------------------|
- -------------------------------------------------------------------------------------------------|
- -0~------------------------------0~----------------------11~----------------------12~------------|
- -----4~----------------------4~----------------------0~-----------------------0~-----------------|
- ---------6~--------------3~----------------------9~----------------------10~---------------------|
- -------------------------------------------------------------------------------------------------|


- -------------------------------------------------------------------------------------------------|
- -------------------------------------------------------------------------------------------------|
- -0~------------------------------0~----------------------11~----------------------12~------------|
- -----4~----------------------4~----------------------0~-----------------------0~-----------------|
- ---------6~--------------3~----------------------9~----------------------10~---------------------|
- -------------------------------------------------------------------------------------------------|
- second guitar with distortion
- -------------------------------------------------------------------------------------------------|
- -------------------------------------------------------------------------------------------------|
- -0~----------------------0~----------------------------------------------------------------------|
- -4~----------------------4~----------------------4~----------------------5~----------------------|
- -6~----------------------3~----------------------x-----------------------x-----------------------|
- -------------------------------------------------4~----------------------5~----------------------|


- -------------------------------------------------------------------------------------------------|
- -------------------------------------------------------------------------------------------------|
- -0~------------------------------0~----------------------11~----------------------12~------------|
- -----4~----------------------4~----------------------0~-----------------------0~-----------1~----|
- ---------6~--------------3~----------------------9~----------------------10~---------------1~----|
- -------------------------------------------------------------------------------------------1~----|
- second guitar with distortion
- -------------------------------------------------------------------------------------------------|
- -------------------------------------------------------------------------------------------------|
- -0~----------------------0~----------------------------------------------------------------------|
- -4~----------------------4~----------------------4~----------------------5~----------------1~----|
- -6~----------------------3~----------------------x-----------------------x-----------------1~----|
- -------------------------------------------------4~----------------------5~----------------1~----|


[Riff 1b, Guitar 1 & 2] - [00:11] - [00:43]
- -------------------------------------------------------------------------|
- -------------------------------------------------------------------------|
- -12----------------------------------12----------------12----------------| hit each note twice
- ----13-10-12-13-10-12-13-10-12-13-10----13-10-12-13-10----13-10-12-13-10-|
- -------------------------------------------------------------------------|
- -------------------------------------------------------------------------|
PM .......................................................................
- -------------------------------------------------------------------------|
- -------------------------------------------------------------------------|
- -12----------------------------------12----------------12----------------| hit each note twice
- ----13-10-12-13-10-12-13-10-12-13-10----13-10-12-13-10----13-10-12-13-10-|
- -------------------------------------------------------------------------|
- -------------------------------------------------------------------------|
PM .......................................................................


- -------------------------------------------------------------------------|
- -------------------------------------------------------------------------|
- -11----------------11----------------12----------------12----------------| hit each note twice
- ----13-9--12-13-9-----13-9--12-13-9-----13-10-12-13-10----13-10-12-13-10-|
- -------------------------------------------------------------------------|
- -------------------------------------------------------------------------|
PM .......................................................................
- -------------------------------------------------------------------------|
- -------------------------------------------------------------------------|
- -11----------------11----------------12----------------12----------------| hit each note twice
- ----13-9--12-13-9-----13-9--12-13-9-----13-10-12-13-10----13-10-12-13-10-|
- -------------------------------------------------------------------------|
- -------------------------------------------------------------------------|
PM .......................................................................

- -------------------------------------------------------------------------|
- -------------------------------------------------------------------------|
- -12----------------------------------12----------------12----------------| hit each note twice
- ----13-10-12-13-10-12-13-10-12-13-10----13-10-12-13-10----13-10-12-13-10-|
- -------------------------------------------------------------------------|
- -------------------------------------------------------------------------|
PM .......................................................................
- -------------------------------------------------------------------------|
- -------------------------------------------------------------------------|
- -12----------------------------------12----------------12----------------| hit each note twice
- ----13-10-12-13-10-12-13-10-12-13-10----13-10-12-13-10----13-10-12-13-10-|
- -------------------------------------------------------------------------|
- -------------------------------------------------------------------------|
PM .......................................................................


- -------------------------------------------------------------------------|
- -------------------------------------------------------------------------|
- -11----------------11----------------12----------------12----------------| hit each note twice
- ----13-9--12-13-9-----13-9--12-13-9-----13-10-12-13-10----13-10-12-13-10-|
- -------------------------------------------------------------------------|
- -------------------------------------------------------------------------|
PM .......................................................................
- -------------------------------------------------------------------------|
- -------------------------------------------------------------------------|
- -11----------------11----------------12----------------12----------------| hit each note twice
- ----13-9--12-13-9-----13-9--12-13-9-----13-10-12-13-10----13-10-12-13-10-|
- -------------------------------------------------------------------------|
- -------------------------------------------------------------------------|
PM .......................................................................


- -------------------------------------------------------------------------|
- -------------------------------------------------------------------------|
- -12----------------12----------------12----------------12----------------| hit each note twice
- ----13-10-12-13-10----13-10-12-13-10----13-10-12-13-10----13-10-12-13-10-|
- -------------------------------------------------------------------------|
- -------------------------------------------------------------------------|
PM .......................................................................
- -15----------------15----------------15----------------15----------------|
- ----16-13-15-16-13----16-13-15-16-13----16-13-15-16-13----16-13-15-16-13-|
- -------------------------------------------------------------------------| hit each note twice
- -------------------------------------------------------------------------|
- -------------------------------------------------------------------------|
- -------------------------------------------------------------------------|


- -------------------------------------------------------------------------|
- -------------------------------------------------------------------------|
- -11----------------11----------------12----------------12----------------| hit each note twice
- ----13-9--12-13-9-----13-9--12-13-9-----13-10-12-13-10----13-10-12-13-10-|
- -------------------------------------------------------------------------|
- -------------------------------------------------------------------------|
PM .......................................................................
- -14----------------14----------------15----------------15----------------|
- ----16-12-15-16-12----16-12-15-16-12----16-13-15-16-13----16-13-15-16-13-|
- -------------------------------------------------------------------------| hit each note twice
- -------------------------------------------------------------------------|
- -------------------------------------------------------------------------|
- -------------------------------------------------------------------------|

4/4 Time

[Riff 2a, Guitar 1 & 2] - [00:43] - [00:57]
- ---------------------------------------------------------------------------------------------------------|
- ---------------------------------------------------------------------------------------------------------|
- ---------------------------------------------------------------------------------------------------------|
- ---------------------------------------------------------------------------------------------------4-5-7-|
- -0h1p0------------------------------5-----------4--------0h1p0---------------------------5-3---6-5-------|
- ------h5-1h5p1h5-1h5p1h5-1h5p1h5-5h8-h8-5555-4h7-h7-4444------h5-1h5p1h5-1h5p1h5-1h5p1h5-----7-----------|
PM         .......................        ....        ....         .......................
AP                                                                                       
  ...............
- ---------------------------------------------------------------------------------------------------------|
- ---------------------------------------------------------------------------------------------------------|
- ---------------------------------------------------------------------------------------------------------|
- ---------------------------------------------------------------------------------------------------4-5-7-|
- ------------------------------------5-----------4----------------------------------------5-3---6-5-------|
- ---------------------------------5h8-h8-5555-4h7-h7-4444-------------------------------------7-----------|
PM                                        ....        ....
AP                                                                                       
  ...............


- ---------------------------------------------------------------------------------------------------------|
- ---------------------------------------------------------------------------------------------------------|
- ---------------------------------------------------------------------------------------------------------|
- ---------------------------------------------------------------------------------------------------4-5-7-|
- -0h1p0------------------------------5-----------4--------0h1p0---------------------------5-3---6-5-------|
- ------h5-1h5p1h5-1h5p1h5-1h5p1h5-5h8-h8-5555-4h7-h7-4444------h5-1h5p1h5-1h5p1h5-1h5p1h5-----7-----------|
PM         .......................        ....        ....         .......................
AP                                                                                       
  ...............
- ---------------------------------------------------------------------------------------------------------|
- ---------------------------------------------------------------------------------------------------------|
- ---------------------------------------------------------------------------------------------------------|
- ---------------------------------------------------------------------------------------------------4-5-7-|
- -0h1p0------------------------------5-----------4--------0h1p0---------------------------5-3---6-5-------|
- ------h5-1h5p1h5-1h5p1h5-1h5p1h5-5h8-h8-5555-4h7-h7-4444------h5-1h5p1h5-1h5p1h5-1h5p1h5-----7-----------|
PM         .......................        ....        ....         .......................
AP                                                                                       
  ...............

[Riff 2b] - [00:43] - [00:57]
- ------------------------------------------------------------------------------------|
- ------------------------------------------------------------------------------------|
- --------------------------------------------------------------/  3  \---------------|
- -/8~---7------------------------------------------------------10h12h13-12p10-12~----|
- -----------/12-10-9-9/10~--9---------/  3  \--0h10\9--------------------------------|
- -----------------------------12~-----10h12h13--------13p10h13-----------------------|
PM                                                     ........

                                         /  3  \
- ----------------------/  3  \--/  3  \-10h11---10-/22b------------------------------|
- --------/ 3 \-/  3  \-10h11---10h11h13------13--------------------------------------|
- -/ 3 \-7h8h10-8h10h12----- 12-------------------------------------------------------|
- -7h8h10-----------------------------------------------------------------------------|
- ------------------------------------------------------------------------------------|
- ------------------------------------------------------------------------------------|


[Riff 3, Guitar 1 & 2] - [00:57] - [01:08-----------------------------------------------| - [2x]
- ------------------------------------------------------------------------------------------|
- ------------------------------------------------------------------------------------------|
- -/3\/3\-[3]--------------------/3\/3\-[3]---4h5p4----------------/3\/3\-[3]---------------|
- -555555---------6p3--6p3--6p3--555555-------------6p3--6p3--6p3--555555-------10-6-9---\--|
- ------------------------------------------------------------------------------------------|
- ------------------------------------------------------------------------------------------|
PM ......         .....................             .....................
AP                                                                              ........
- -----------------------------------------------------------------------------------------|
- -----------------------------------------------------------------------------------------|
- -/3\/3\-[9]--------------------/3\/3\-[9]---7h8p7----------------/3\/3\-[9]--------------|
- -999999---------10p8-10p8-10p8-999999-------------10p8-10p8-10p8-999999-------13-10-12-\-|
- -----------------------------------------------------------------------------------------|
- -----------------------------------------------------------------------------------------|
PM ......         .....................             .....................
AP                                                                              ........


[Riff 4, Guitar 1 & 2] - [01:08] - [01:23]
- -------------------------------------------------------------------------------------------------|
- -------------------------------------------------------------------------------------------------|
- -------------------------------------------------------------------------------------------------|
- -0-----1-----5~----------1-----5-----4~----------0-----1-----5~----------1-----5-----4-----------|
- -0---0-1---0-5~----------1---0-5---0-4~----------0---0-1---0-5~----------1---0-5---0-4-----------|
- -0---0-1---0-5~----------1---0-5---0-4~----------0---0-1---0-5~----------1---0-5---0-4-----------|
PM     .     .                 .     .                 .     .                 .     .
- -------------------------------------------------------------------------------------------------|
- -------------------------------------------------------------------------------------------------|
- -------------------------------------------------------------------------------------------------|
- -4-----5-----8~----------5-----8-----7~----------4-----5-----8~----------7-----8-----7-----------|
- -x-----x-----x-----------x-----x-----x-----------x-----x-----x-----------x-----x-----x-----------|
- -4---0-5---0-8~----------5---0-8---0-7~----------4---0-5---0-8~----------7---0-8---0-7-----------|
PM     .     .                 .     .                 .     .                 .     .


[Riff 5a] - [01:23] - [01:53----------------------------------------| - [x2]
- ------------------------------------------------------------------|
- ------------------------------------------------------------------|
- ------------------------------------------------------------------|
- ------------------------------------------------------------------|
- -0-0---------------0-0-0---0---0-0-0---------------0-0-0---0---0--|
- -1-1---------------1-1-1---1---1-1-1---------------1-1-1---1---1--|
PM ...............................................................

- -----------------------------------------------------------------|
- -----------------------------------------------------------------|
- -----------------------------------------------------------------|
- -------------------------------------------------------1-------1-|
- -0-0---------------0-0-0---0---0-0-0---------------0-0-0---0---0-|
- -1-1---------------1-1-1---1---1-1-1---------------1-1-1---1---1-|
PM .....................................................     .


[Riff 5b] - [01:38] - [02:08--------------------------------------| - [x4]
- ----------------------------------------------------------------|
- ----------------------------------------------------------------|
- -7~------------------------------0~-----------------------------|
- -------5~----------0~--------4~--------4~-----------------------|
- -------------3~----------6~------------------5~-----------------|
- ----------------------------------------------------------------|


[Riff 6] - [01:53] - [02:08---------------------------------------| - [x2]
- ----------------------------------------------------------------|
- ----------------------------------------------------------------|
- ----------------------------------------------------------------|
- -7~----5~----5~----1~-----------/5~----4~-----------------------|
- -5~----5~----3~----1~------------x-----x-----5~--0-000-0-0-000--|
- -------5~----5~----1~-----------/5~----4~----0~--1-111-1-1-111--|
PM                                                 .............


[Riff 7, Guitar 1 & 2] - [02:08] - [02:32]
- -------------------------------------------------------------------------|
- ---------1---------------1-----1/3-----------3---------------3-----3/4---|
- -------------/ 3 \ / 3 \-------------------------/ 3 \-/ 3 \-------------|
- -1-1-1-1---1-1-1-1-1-1-1---1-1-----4-4-4-4-4---4-4-4-4-4-4-4---4-4-----5-|
- -------------------------------------------------------------------------|
- -------------------------------------------------------------------------|
PM .......   .............   ...       .......   .............   ...
- -------------------------------------------------------------------------|
- ---------3---------------3-----3/7-----------7---------------7-----7/8---|
- -------------/ 3 \ / 3 \-------------------------/ 3 \-/ 3 \-------------|
- -4-4-4-4---4-4-4-4-4-4-4---4-4-----7-7-7-7-7---7-7-7-7-7-7-7---7-7-----8-|
- -------------------------------------------------------------------------|
- -------------------------------------------------------------------------|
PM .......   .............   ...       .......   .............   ...


- -------------------------------------------------------------------------|
- -------------------------------------------------------------------------|
- -------------------------------------------------------------------------|
- -------------/ 3 \ / 3 \-------------------------------------------------|
- -0-0-0-0-3-0-0-0-0-0-0-0-3-0-0-3/5-----------5---/ 3 \-/ 3 \-5-----5/6---|
- -1-1-1-1---1-1-1-1-1-1-1---1-1-----4-4-4-4-4---4-4-4-4-4-4-4---4-4-----5-|
PM .......   .............   ...       .......   .............   ...
- -------------------------------------------------------------------------|
- -------------------------------------------------------------------------|
- -------------------------------------------------------------------------|
- ---------1---/ 3 \ / 3 \-1-----1/4-----------4---------------4-----4/5---|
- -0-0-0-0---0-0-0-0-0-0-0---0-0-------------------/ 3 \-/ 3 \-------------|
- -1-1-1-1---1-1-1-1-1-1-1---1-1-----4-4-4-4-4---4-4-4-4-4-4-4---4-4-----5-|
PM .......   .............   ...       .......   .............   ...


- -------------------------------------------------------------------------|
- -------------------------------------------------------------------------|
- -------------------------------------------------------------------------|
- -------------/ 3 \ / 3 \-------------------------------------------------|
- -0-0-0-0-3-0-0-0-0-0-0-0-3-0-0-3/5-----------5---/ 3 \-/ 3 \-5-----5/6---|
- -1-1-1-1---1-1-1-1-1-1-1---1-1-----4-4-4-4-4---4-4-4-4-4-4-4---4-4-----5-|
PM .......   .............   ...       .......   .............   ...
- -------------------------------------------------------------------------|
- -------------------------------------------------------------------------|
- -------------------------------------------------------------------------|
- ---------1---/ 3 \ / 3 \-1-----1/4-----------4---------------4-----4/5---|
- -0-0-0-0---0-0-0-0-0-0-0---0-0-------------------/ 3 \-/ 3 \-------------|
- -1-1-1-1---1-1-1-1-1-1-1---1-1-----4-4-4-4-4---4-4-4-4-4-4-4---4-4-----5-|
PM .......   .............   ...       .......   .............   ...


- --------------------|
- --------------------|
- --------------------|
- -------------4-5-7--|
- -5-3----6--5--------|
- -----7--------------|
AP ..................
- --------------------|
- --------------------|
- --------------------|
- -------------7-8-10-|
- -9-6----10-9--------|
- -----10-------------|
AP ..................


[Riff 8, Guitar 1 & 2] - [02:32] - [02:47]
- ------------------------------------------------------------------------------------------------------------|
- ------------------------------------------------------------------------------------------------------------|
- ------------------------------------------------------------------------------------------------------------|
- -----------------------------------------------------------------------------------------------------4-5-7--|
- -0h1p0------------------------------5-----------4--------0h1p0---------------------------5-3----6--5--------|
- ------h5-1h5p1h5-1h5p1h5-1h5p1h5-5h8-h8-5555-4h7-h7-4444------h5-1h5p1h5-1h5p1h5-1h5p1h5-----7--------------|
PM         .......................        ....        ....         .......................
AP                                                                                       
  ..................
- ------------------------------------------------------------------------------------------------------------|
- ------------------------------------------------------------------------------------------------------------|
- ------------------------------------------------------------------------------------------------------------|
- -----------------------------------------------------------------------------------------------------7-8-10-|
- -3h5p3---------------------------5h6p5-------3h5p3-------3h5p3---------------------------9-6----10-9--------|
- ------h8-4h8p4h8-4h8p4h8-4h8p4h8------8-8888------7-7777------h8-4h8p4h8-4h8p4h8-4h8p4h8-----10-------------|
PM         .......................        ....        ....         .......................
AP                                                                                       
  ..................


- ------------------------------------------------------------------------------------------------------------|
- ------------------------------------------------------------------------------------------------------------|
- ------------------------------------------------------------------------------------------------------------|
- -----------------------------------------------------------------------------------------------------4-5-7--|
- -0h1p0------------------------------5-----------4--------0h1p0---------------------------5-3----6--5--------|
- ------h5-1h5p1h5-1h5p1h5-1h5p1h5-5h8-h8-5555-4h7-h7-4444------h5-1h5p1h5-1h5p1h5-1h5p1h5-----7--------------|
PM         .......................        ....        ....         .......................
AP                                                                                       
  ..................
- ------------------------------------------------------------------------------------------------------------|
- ------------------------------------------------------------------------------------------------------------|
- ------------------------------------------------------------------------------------------------------------|
- ------------------------------------------------------------------------------------------------------------|
- -3h5p3---------------------------5h6p5-------3h5p3-------3h5p3----------------------------------------------|
- ------h8-4h8p4h8-4h8p4h8-4h8p4h8------8-8888------7-7777------h8-4h8p4h8-4h8p4h8-4h8p4h8--------------------|
PM         .......................        ....        ....         .......................


[Riff 9, Guitar 1 & 2] - [02:47] - [03:02--------------------------| - [x4]
- ---------------------------------------------------------------------|
- ---------------------------------------------------------------------|
- ---------------------------------------------------------------------|
- -4h5p4--------------------------/3\/3\-4h5p4----------------5---4----|
- -------6p3--6p3--6p3--6p3--6p3--555555-------6p3--6p3--6p3----6---5--|
- ---------------------------------------------------------------------|
PM       ...............................       ..............
AP                                                            .......
- --------------------------------------------------------------------|
- --------------------------------------------------------------------|
- --------------------------------------------------------------------|
- -7h8p7--------------------------/3\/3\-7h8p7----------------8---7---|
- -------10p6-10p6-10p6-10p6-10p6-999999-------10p6-10p6-10p6---10--9-|
- --------------------------------------------------------------------|
PM       ...............................       ..............
AP                                                            .......


[Riff 10] - [03:02] - [03:16----------------------------------------| - [x2]
- ------------------------------------------------------------------|
- ------------------------------------------------------------------|
- ------------------------------------------------------------------|
- -1-----1-----1-----1-----------------1-----1-----1-----1-----1----|
- -0---0-0---0-0---0-0---0-------------0---0-0---0-0---0-0---0-0-0--|
- -1---0-1---0-1---0-1---0-0--0--0-----1---0-1---0-1---0-1---0-1-0--|
PM     .     .     .     .                 .     .     .     .   .


[Riff 11a] - [03:16] - [03:35]
- -----------------------------------------------------------------|
- -----------------------------------------------------------------|
- -----------------------------------------------------------------|
- -1-----1-----1-----1-------------1-----1-----1-----1-----1---1---|
- -0---0-0---0-0---0-0---0---------0---0-0---0-0---0-0---0-0-0-0-0-|
- -1---0-1---0-1---0-1---0-0--0--0-1---0-1---0-1---0-1---0-1-0-1-0-|
PM     .     .     .     .             .     .     .     .   .   .

- -----------------------------------------------------------------|
- -----------------------------------------------------------------|
- -----------------------------------------------------------------|
- -1-----1-----1-----1-----------------1-----1-----1-----1-----1---|
- -0---0-0---0-0---0-0---0-------------0---0-0---0-0---0-0---0-0-0-|
- -1---0-1---0-1---0-1---0-0--0--0-----1---0-1---0-1---0-1---0-1-0-|
PM     .     .     .     .                 .     .     .     .   .

[Riff 11b, Guitar 1 & 2] - [03:16] - [03:35]

   /  3  \  /  3  \
- -18p17p15-18p17p15-/  3  \--/  3  \-----------------------------------|
- -------------------19p16p15-19p16p15-/  3  \--/  3  \-----------------|
- -------------------------------------17p15p14-17p15p14-/  3  \/  3  \-|
- -------------------------------------------------------17p16--17p16---|
- ------------------------------------------------------------18-----18-|
- ----------------------------------------------------------------------|
-   /  3  \  /  3  \
- -15p14p12-15p14p12-/  3  \--/  3  \-----------------------------------|
- -------------------15p13p10-15p13p10-/  3  \--/  3  \-----------------|
- -------------------------------------15p14p12-15p14p12-/  3  \/  3  \-|
- -------------------------------------------------------13p12--13p12---|
- ------------------------------------------------------------15-----15-|
- ----------------------------------------------------------------------|


- -----------------------------------------------------|
- -----------------------------------------------------|
- -----------------------------------------------------|
- -------/17-16~-----13~-0-12~-0-10~-0-12~-0-13-0-12---|
- -17~-------------------------------------------------|
- -----------------------------------------------------|
PM                       .     .     .     .    .
- -----------------------------------------------------|
- -----------------------------------------------------|
- -----------------------------------------------------|
- -------/13-12~-----10~-0-8~--0-7~--0-8~--0-10-0-8----|
- -13~-------------------------------------------------|
- -----------------------------------------------------|
PM                       .     .     .     .    .


   /  3  \  /  3  \
- -18p17p15-18p17p15-/  3  \--/  3  \-----------------------------------|
- -------------------19p16p15-19p16p15-/  3  \--/  3  \-----------------|
- -------------------------------------17p15p14-17p15p14-/  3  \/  3  \-|
- -------------------------------------------------------17p16--17p16---|
- ------------------------------------------------------------18-----18-|
- ----------------------------------------------------------------------|
-   /  3  \  /  3  \
- -15p14p12-15p14p12-/  3  \--/  3  \-----------------------------------|
- -------------------15p13p10-15p13p10-/  3  \--/  3  \-----------------|
- -------------------------------------15p14p12-15p14p12-/  3  \/  3  \-|
- -------------------------------------------------------13p12--13p12---|
- ------------------------------------------------------------15-----15-|
- ----------------------------------------------------------------------|


- -----------------------------------------------------|
- -----------------------------------------------------|
- -----------------------------------------------------|
- -------/17-16~---------13~-0-12~-0-10~-0-12~-0-13-0--|
- -17~-------------------------------------------------|
- -----------------------------------------------------|
PM                           .     .     .     .    .
- -----------------------------------------------------|
- -----------------------------------------------------|
- -----------------------------------------------------|
- -------/13-12~---------10~-0-8~--0-7~--0-8~--0-10-0--|
- -13~-------------------------------------------------|
- -----------------------------------------------------|
PM                           .     .     .     .    .

[Symbols]

PM... Palm Mute notes with (...) under them
AP... Alternate Pick notes with (...) under them
h     Hammer On
p     Pull Off
[ ]   Harmonic
/     Slide Up
\     Slide Down
x     Dead Note
b     Bend
p     Pre-Bend
r     Release Bend
(x )  Play Notes x amount of times
~     Let Ring
/ 3 \ Notes are triplets (3 notes in the space of two)

:)
Добавлено: 11.11.2015
Другие материалы по этой песне:

Страница создана 11.11.2015
http://primanota.ru/in-the-midst-of-lions/fearless-chords.htm
Привет, Гость.
Предлагаем пройти революционный курс по гитаре.
Подарок от PrimaNota.Ru, забирай!