PrimaNota.ru - самый крупный в мире бесплатный архив песенных текстов, аккордов, табулатур и нот


In Mourning - Amnesia - текст песни, таба, видео

Регистрация Запомнить меня
Войти через:  Facebook Google Twitter Vk Yandex Mail.ru

In Mourning - Amnesia - текст песни, таба, видео

Печатать
Просмотров: 192
Уроки эстрадного вокала в Санкт-Петербурге
Song: Amnesia
Band: In Mourning
Album: Shrouded Divine
Year: 2008
tab by: Dai

I have two versions of the intro riff ,i use the second but here are both, choose what 
like.

first:
                                                        x4 and x2 with another effect 
wah
|-------------|---------------------|--------------|-----------------|
|-------------|---------------------|--------------|-----------------|
|-------------|---------------------|--------------|-----------------|
|-------------|---------------------|--------------|-----------------|
|-------------|---------------------|--------------|------------2-2--|
|-0-0-0---6-5-|-0--0----6-5----0h3--|--0-0-0---6-5-|---0-0------0-0--|
                .  .                                            . .
second:
                                                        x4 and x2 with another  effect 
wah
|--------------|-------------------|-------------|----------------|
|--------------|-------------------|-------------|----------------|
|--------------|-------------------|-------------|----------------|
|--------------|-------------------|-------------|----------------|
|--------1-0---|--------1-0--------|--------1-0--|----------2-2---|
|-3p2p0--------|-3p2p0--------0-3--|-3p2p0-------|-3p2p0----0-0---|
                                                            . .

pre-verse:                                                      x2
|------------------------------|------------------------------|
|------------------------------|------------------------------|
|--12--11---8----9--------XX---|--12---11---8----9--------X---|
|---X---X---X----X--------XX---|---X---X----X----X--------X---|
|--10---9---6----7--------XX---|--10---9----6----7--------X---|
|------------------------------|------------------------------|

verse:

guit 1                                                                             x4
|-12-------12-------10---------10----10---|--9---------9---------7----------7----7-|
|-----12-------12-------12---------12-----|-----10-------10--------8-----------8---|
|-----------------------------------------|----------------------------------------|
|-----------------------------------------|----------------------------------------|
|-----------------------------------------|----------------------------------------|
|-----------------------------------------|----------------------------------------|
|guit 2
|-----------------------------------------|----------------------------------------|
|-----------------------------------------|----------------------------------------|
|-----------------------------------------|----------------------------------------|
|-----------------------------------------|----------------------------------------|
|-----------------------------------------|----------------------------------------|
|--0---0----00-----000------0------000----|--0---0----00-----000------0------000---|
   .   .    ..     ...      .      ...       .   .    ..     ...      .      ...

pre-verse
verse

pre-chorus:

|-----------------------|
|-----------------------|
|---9----12---11--------|
|---X----X----X---------|
|---7----10---9---------|
|-----------------------|

chorus:

guit 1
|--12------12------15------14-------------10-10------10------(10)--------|
|------12------12------12-----12-----------------12------12------(12)----|
|o-----------------------------------------------------------------------|
|o-----------------------------------------------------------------------|
|------------------------------------------------------------------------|
|------------------------------------------------------------------------|
|guit 2
|------------------------------------------------------------------------|
|------------------------------------------------------------------------|
|o-----------------------------------------------------------------------|
|o-2---2---2---2---2---2---2---2-----------5----5----5----5--------------|
|--2---2---2---2---2---2---2---2-----------5----5----5----5--------------|
|--0---0---0---0---0---0---0---0-----------3----3----3----3--------------|


guit 1
|--9------9------9------9-----------------------------------------------|
|-----10-----10-----10-----10//12------------12--12--11--9--------------|
|----------------------------------------------------------------------o|
|----------------------------------------------------------------------o|
|-----------------------------------------------------------------------|
|-----------------------------------------------------------------------|
|guit 2
|-----------------------------------------------------------------------|
|-----------------------------------------------------------------------|
|----------------------------------------------------------------------o|
|---7---7---7---7---7---7---7---7------------5----5----4----2----------o|
|---7---7---7---7---7---7---7---7------------5----5----4----2-----------|
|---5---5---5---5---5---5---5---5------------3----3----2----0-----------|

intro
                                                                  x2
|--------------|-------------------|-------------|----------------|
|--------------|-------------------|-------------|----------------|
|--------------|-------------------|-------------|----------------|
|--------------|-------------------|-------------|----------------|
|--------1-0---|--------1-0--------|--------1-0--|----------2-2---|
|-3p2p0--------|-3p2p0--------0-3--|-3p2p0-------|-3p2p0----0-0---|
                                                            . .


solo:

guit 1
|---------------------------------||-----------------------------|
|---------------------------------||-----------------------------|
|--/7.---7.---4.----4.------------||-/7.---7.----4.----4.--------|
|--------------------------/7--7--||-------------------------/7.-|
|---------------------------------||-----------------------------|
|---------------------------------||-----------------------------|
|guit 2
|---------------------------------||-----------------------------|
|---------------------------------||-----------------------------|
|---------------------------------||-----------------------------|
|---------------------------------||-----------------------------|
|---------------------------------||-----------------------------|
|-3p2p0-3p2p0-3p2p0-3p2p0---0--0--||-3p2p0-3p2p0-3p2p0-3p2p0--0--|

guit 1
|---------------------------------||-----------------------------|
|---------------------------------||-----------------------------|
|--/7.---7.----4.----4.-----------||-----------------------------|
|--------------------------/7--7--||-/5---5----7-----------------|
|---------------------------------||-------------------7--5-7----|
|---------------------------------||-----------------------------|

|---------------------------------||-----------------------------|
|---------------------------------||-----------------------------|
|---------------------------------||-----------------------------|
|---------------------------------||-----------------------------|
|---------------------------------||-----------------------------|
|-3p2p0-3p2p0-3p2p0-3p2p0---0--0--||-3p2p0-3p2p0-3p2p0-3p2p0---0-|


verse
pre-chorus
chorus

pre-breakdown:
                                                                         x2
|-----------------------------------|----------------------------------|
|-----------------------------------|----------------------------------|
|-----------------------------------|----------------------------------|
|---2-2-2-2-2-2-2-2-------5-5-5-5---|----7-7-7-7-7-7-7-7------5-5-4-2--|
|---2-2-2-2-2-2-2-2-------5-5-5-5---|----7-7-7-7-7-7-7-7------5-5-4-2--|
|---0-0-0-0-0-0-0-0-------3-3-3-3---|----5-5-5-5-5-5-5-5------3-3-2-0--|
    . . . . . . . .                      . . . . . . . .

breakdown

|-------------------------------------------------------------|
|-------------------------------------9---9h10---9------------|
|--9---9h10---9------10---9---10----------------------10--9---|
|-------------------------------------------------------------|
|-------------------------------------------------------------|
|-------------------------------------------------------------|
|guit 2
|-------------------------------------------------------------|
|-------------------------------------------------------------|
|-------------------------------------------------------------|
|-2-----------------------------------------------------------|
|-2-----------------------------------------------------------|
|-0-0-0-0-0-0-0-0-0-0-0-0-0-0-0-0-0-0-0-0-0-0-0-0-0-0-0-0-0-0-|


all tremolo picked
guit 1                                                                          x6
|------------------------------------------------------------------------------|
|--5----6--5---6--5---6--//-9---10--9-\\---6---5---6---5-----------------------|
|-----------------------------------------------------------7--5----4-5-4------|
|------------------------------------------------------------------------------|
|------------------------------------------------------------------------------|
|------------------------------------------------------------------------------|
|guit 2 enters at 3rd time of guit 1 and ends in 5th
|---------------------------------------------------------8----10----12----11--|
|---------------------------9---10--9------------------------------------------|
|--9----10-9---10-9---10-------------------10--9-------------------------------|
|------------------------------------------------------------------------------|
|------------------------------------------------------------------------------|
|------------------------------------------------------------------------------|

outro
|-----------------------------|
|-----------------------------|
|-----------------------------|
|-------2----2--------2-2-----|
|-------2----2--------2-2-----|
|-------0----0--------0-0-----|

                                                               x2
|-------------------------------|-----------------------------|
|-------------------------------|-----------------------------|
|--12---11---8----9--------XX---|--12---11---8----9-----X-----|
|--X----X----X----X--------XX---|---X---X----X----X-----X-----|
|--10---9----6----7--------XX---|--10---9----6----7-----X-----|
|-------------------------------|-----------------------------|


notation
x : mute note
. under tab:   palm mute
. below number: cut sound
( ):  ghost note
// : slide up
\\: slide down
h: hamer on
p: pull off
Добавлено: 22.06.2012
Вам также может быть интересно:
Другие материалы по этой песне:
  • Аккорды и текст

Страница создана 22.06.2012
http://primanota.ru/in-mourning/amnesia-chords.htm
Привет, Гость.
Предлагаем пройти революционный курс по гитаре.
Подарок от PrimaNota.Ru, забирай!