PrimaNota.ru - самый крупный в мире бесплатный архив песенных текстов, аккордов, табулатур и нот


In Loving Memory - Open The Door For Me - таба, видео

Регистрация Запомнить меня
Войти через:  Facebook Google Twitter Vk Yandex Mail.ru

In Loving Memory - Open The Door For Me - таба, видео

Печатать
Просмотров: 69
IN LOVING MEMORY - OPEN THE DOOR FOR ME

http://www.last.fm/music/In+Loving+Memory

e|---------------------------------------|
b|---------------------------------------|
G|------0------0-----------0------0------|
D|---10-----10-----10---10-----10-----10-|
A|-8------8------8----0------0------0----|
E|---------------------------------------|

e|--------------------------------------|
b|--------------------------------------|
G|------0------0-----------0------------|
D|---10-----10-----10---10-----10/12\10-|
A|-7------7------7----8------8----------|
E|--------------------------------------|

play x2
-------------------------------------------------

e|---------------------------------------|
b|---------------------------------------|
G|------0------0-----------0------0------|
D|---10-----10-----10---10-----10-----10-|
A|-8------8------8----0------0------0----|
E|---------------------------------------|

e|---------------------------------------|
b|---------------------------------------|
G|------0------0-----------0------0------|
D|---10-----10-----10---10-----10-----10-|
A|-7------7------7----8------8------8----|
E|---------------------------------------|

play x3
-----------------------------------------------

e|---------------------------------------|
b|---------------------------------------|
G|------0------0-----------0------0------|
D|---10-----10-----10---10-----10-----10-|
A|-8------8------8----0------0------0----|
E|---------------------------------------|

e|--------------------------|
b|--------------------------|
G|------0------0------------|
D|---10-----10-----10-10-10-|
A|-7------7------7----8--8--|
E|--------------------------|

e|---------------------------------------------------------------|
b|---------------------------------------------------------------|
G|----------------------------------------------------------9h10-|
D|-1010101010101010-1212121212121212-99999999-1010--7-7-9-7------| 1,5
A|-8-8-8-8-8-8-8-8--1010101010101010-77777777-8-8----------------|
E|---------------------------------------------------------------|

e|---------------------------------------------------------------|
b|---------------------------------------------------------------|
G|---------------------------------------------------------------|
D|-1010101010101010-1212121212121212-99999999-1010- bass --------| 2,6
A|-8-8-8-8-8-8-8-8--1010101010101010-77777777-8-8----------------|
E|---------------------------------------------------------------|

e|---------------------------------------------------------------|
b|---------------------------------------------------------------|
G|---------------------------------------------------------------|
D|-1010101010101010-1212121212121212-99999999-1010- drums -------| 3,7
A|-8-8-8-8-8-8-8-8--1010101010101010-77777777-8-8----------------|
E|---------------------------------------------------------------|

e|------------------------------------------------------------------|
b|------------------------------------------------------------------|
G|------------------------------------------------------------------|
D|-1010101010101010-1212121212121212-99999999-1010------------------| 4
A|-8-8-8-8-8-8-8-8--1010101010101010-77777777-8-8-------------10h12-|
E|--------------------------------------------------6-8-13-10-------|

e|---------------------------------------------------------------------|
b|---------------------------------------------------------------------|
G|---------------------------------------------------------------------|
D|-10101010101010-12121212121212-9999999-10101010101010-10101010101010-| 8,9
A|-8-8-8-8-8-8-8--10101010101010-7777777-8-8-8-8-8-8-8--9-9-9-9-9-9-9--|
E|------------------------------------------------------8-8-8-8-8-8-8--|

e|-------|
b|-------|
G|-------|
D|-10-10-| x8
A|-8--8--|
E|-------|

e|------------------|
b|------------------|
G|------------------|
D|-7----------------|
A|-7----------------|
E|-5----------------|

e|--------------------------------------------------------------------|
b|--------------------------7-7-777-7777777777777777-5555555555555555-|
G|---------------------------------------------------5555555555555555-|
D|-0000000000000000-999999999-9-999-9999999999999999------------------| x6
A|-0000000000000000-000000000-0-000-0000000000000000-3333333333333333-|
E|------------------000000000-----------------------------------------|

e|------------------------------------------|
b|------------------------------------------|
G|------5----5--5p0-0-----2-5-------2-5p0h2-|
D|------------------------------------------|
A|-0--------------------0------0-0----------|
E|------------------------------------------|

e|----------------------|
b|----------------------|
G|----2-5-------2-5p2p0-|
D|----------------------| x2
A|-0------0-0-0---------|
E|----------------------|
Добавлено: 16.11.2013
Вам также может быть интересно:
Другие материалы по этой песне:
  • Аккорды и текст

Страница создана 16.11.2013
http://primanota.ru/in-loving-memory/open-the-door-for-me-chords.htm
Привет, Гость.
Предлагаем пройти революционный курс по гитаре.
Подарок от PrimaNota.Ru, забирай!