PrimaNota.ru - самый крупный в мире бесплатный архив песенных текстов, аккордов, табулатур и нот


In Her Own Words - We Fight - таба, видео

Регистрация Запомнить меня
Войти через:  Facebook Google Twitter Vk Yandex Mail.ru

In Her Own Words - We Fight - таба, видео

Печатать
Просмотров: 165
-------------------------------------------------------------------------------
                             We Fight! – In Her Own Words
-------------------------------------------------------------------------------

Tabbed by:dvnisthebest
Email:dvnisthebest@yahoo.com

This is my first tab if you find any mistakes email or message me to let me know, 
thanks! Hope this helps, it's pretty accurate.
The breakdown might not be 100% correct but you can figure it out.
I also haven't got the solo down just quite yet but when i do i will tab it but for now 
here is the rythm part.

Intro
Verse 1
Pre-Chorus
Chorus 1
Pre-Verse
Verse 2
Breakdown pt.1 x2
Breakdown pt.2
solo(rhythm part)
Chorus 2 x4
Outro

Tuning: Drop C#(C#G#C#F#A#D#)

(Intro)
|---------------------------------------------------------------------------|
|---------------------------------------------------------------------------|
|---------------------------------------------------------------------------|
|-3-3-3-3-------------------------------------------------------------------|
|-3-3-3-3-------------------------------------------------------------------|
|-3-3-3-3-------------------------------------------------------------------|

|---------------------------------------------------------------------------|
|---------------------------------------------------------------------------|
|-17-171717-10-10-12121212-15-14-12-101410----------------------------------|
|---------------------------------------------------------------------------|
|-15-151515-8--8--10101010-13-12-10-8-128-----------------------------------|
|---------------------------------------------------------------------------|

|---------------------------------------------------------------------------|
|---------------------------------------------------------------------------|
|-17-171717-10-10-12121212-10-9-10-10-10101010------------------------------|
|---------------------------------------------------------------------------|
|-15-151515-8--8--10101010-8--7-8--8--8-8-8-8-------------------------------|
|---------------------------------------------------------------------------|

|---------------------------------------------------------------------------|
|---------------------------------------------------------------------------|
|-17-171717-10-10-12121212-15-14-12-101410----------------------------------|
|---------------------------------------------------------------------------|
|-15-151515-8--8--10101010-13-12-10-8-128-----------------------------------|
|---------------------------------------------------------------------------|

|---------------------------------------------------------------------------|
|---------------------------------------------------------------------------|
|-17-171717-10-10-12121212-9-9999999----------------------------------------|
|---------------------------------------------------------------------------|
|-15-151515-8--8--10101010-7-7777777----------------------------------------|
|---------------------------------------------------------------------------|

(Verse 1)
|---------------------------------------------------------------------------|
|---------------------------------------------------------------------------|
|---------------------------------------------------------------------------|
|-(3-3333~-3-3333-3-3333~-88-1010-7---)--0-00-00-0-0000-2--22-22-2-2222-----|
|-(3-3333~-3-3333-3-3333~-88-1010-7-x2)--0-00-00-0-0000-2--22-22-2-2222-----|
|-(3-3333~-3-3333-3-3333~-88-1010-7---)--0-00-00-0-0000-2--22-22-2-2222-----|
     xx             xx
(Pre-Chorus)
|---------------------------------------------------------------------------|
|---------------------------------------------------------------------------|
|---------------------------------------------------------------------------|
|-5-55-55-5-5555-8-88-88-8-8888-3-33-33-0-0000-7-77-77-7-7777---------------|
|-5-55-55-5-5555-8-88-88-8-8888-3-33-33-0-0000-7-77-77-7-7777---------------|
|-5-55-55-5-5555-8-88-88-8-8888-3-33-33-0-0000-7-77-77-7-7777---------------|

|---------------------------------------------------------------------------|
|---------------------------------------------------------------------------|
|---------------------------------------------------------------------------|
|-8-88-88-8-8888-8-8-8-8----------------------------------------------------|
|-8-88-88-8-8888-8-8-8-8----------------------------------------------------|
|-8-88-88-8-8888-8-8-8-8----------------------------------------------------|

(Chorus 1)
|---------------------------------------------------------------------------|
|---------------------------------------------------------------------------|
|---------------------------------------------------------------------------|
|-3-33333333333333-2-22222222222222-0-00000000000000-8-88888888888-88-88----|
|-3-33333333333333-2-22222222222222-0-00000000000000-8-88888888888-88-88----|
|-3-33333333333333-2-22222222222222-0-00000000000000-8-88888888888-88-88----|

(Pre-Verse)
|---------------------------------------------------------------------------|
|---------------------------------------------------------------------------|
|-17-171717-10-10-12121212-15-14-12-101410----------------------------------|
|---------------------------------------------------------------------------|
|-15-151515-8--8--10101010-13-12-10-8-128-----------------------------------|
|---------------------------------------------------------------------------|

|---------------------------------------------------------------------------|
|---------------------------------------------------------------------------|
|-17-171717-10-10-12121212-10-9-10-10-10101010------------------------------|
|---------------------------------------------------------------------------|
|-15-151515-8--8--10101010-8--7-8--8--8-8-8-8-------------------------------|
|---------------------------------------------------------------------------|

|---------------------------------------------------------------------------|
|---------------------------------------------------------------------------|
|-17-171717-10-10-12121212-15-14-12-101410----------------------------------|
|---------------------------------------------------------------------------|
|-15-151515-8--8--10101010-13-12-10-8-128-----------------------------------|
|---------------------------------------------------------------------------|

|---------------------------------------------------------------------------|
|---------------------------------------------------------------------------|
|-17-171717-10-10-12121212-141414141414141412-------------------------------|
|---------------------------------------------------------------------------|
|-15-151515-8--8--10101010-121212121212121210-------------------------------|
|---------------------------------------------------------------------------|

(verse 2)
|---------------------------------------------------------------------------|
|---------------------------------------------------------------------------|
|---------------------------------------------------------------------------|
|-8-8888-8-8888-10-10101010-10-10101010-0-0000-0-0000-0-0000~-0-0000--------|
|-8-8888-8-8888-10-10101010-10-10101010-0-0000-0-0000-0-0000~-0-0000--------|
|-8-8888-8-8888-10-10101010-10-10101010-0-0000-0-0000-0-0000~-0-0000--------|
     xx              x x                   xx            xx

|-----------------------------------------------------------------------------|
|-----------------------------------------------------------------------------|
|-----------------------------------------------------------------------------|
|-8-8888-8-8888-10-10101010-10-10101010---------------------------------------|
|-8-8888-8-8888-10-10101010-10-10101010---------------------------------------|
|-8-8888-8-8888-10-10101010-10-10101010---------------------------------------|
     xx              x x

(Breakdown pt. 1)
|---------------------------------------------------------------------------|
|---------------------------------------------------------------------------|
|---------------------------------------------------------------------------|
|-0000-0000-0000000-00-000-0-0000-0000-0000-00-0-00000000-------------------|
|-0000-0000-0000000-00-000-0-0000-0000-0000-00-0-00000000-------------------|
|-0000-0000-0000000-00-000-0-0000-0000-0000-00-0-00000000-------------------|
  xxxx xxxx xxxxxxx xx xxx x xxxx xxxx xxxx xx x xxxxxxxx

(Breakdown pt. 2)
|---------------------------------------------------------------------------|
|---------------------------------------------------------------------------|
|---------------------------------------------------------------------------|
|-0-0-0-0-00000000-0-0-0----------------------------------------------------|
|-0-0-0-0-00000000-0-0-0----------------------------------------------------|
|-0-0-0-0-00000000-0-0-0----------------------------------------------------|
  x x x x xxxxxxxx x x x

(solo rhythm)
|---------------------------------------------------------------------------|
|---------------------------------------------------------------------------|
|---------------------------------------------------------------------------|
|-0-0-0~~-2-2-2~~-8-8-8~~---8-8-8~~-----------------------------------------|
|-0-0-0~~-2-2-2~~-8-8-8~~---8-8-8~~-----------------------------------------|
|-0-0-0~~-2-2-2~~-8-8-8~~---8-8-8~~-----------------------------------------|

|---------------------------------------------------------------------------|
|---------------------------------------------------------------------------|
|---------------------------------------------------------------------------|
|-0000000000000000-2222222222222222-8888888888888888888888888888888---------|
|-0000000000000000-2222222222222222-8888888888888888888888888888888---------|
|-0000000000000000-2222222222222222-8888888888888888888888888888888---------|

(Chorus 2) listen for correct pattern!
|---------------------------------------------------------------------------|
|---------------------------------------------------------------------------|
|---------------------------------------------------------------------------|
|-3-33333333333333-2-22222222222222-0-00000000000000-8-88888888888888-------|
|-3-33333333333333-2-22222222222222-0-00000000000000-8-88888888888888-------|
|-3-33333333333333-2-22222222222222-0-00000000000000-8-88888888888888-------|

(outro)
|---------------------------------------------------------------------------|
|---------------------------------------------------------------------------|
|-17-171717-10-10-12121212-15-14-12-12-12121212-----------------------------|
|---------------------------------------------------------------------------|
|-15-151515-8--8--10101010-13-12-10-10-10101010-----------------------------|
|---------------------------------------------------------------------------|

|-----------------------------------------------------------------------------|
|-----------------------------------------------------------------------------|
|-17-171717-10-10-12121212-15-14-12-10-12-10-10-------------------------------|
|-----------------------------------------------------------------------------|
|-15-151515-8--8--10101010-13-12-10-8--10-8--8--------------------------------|
|-----------------------------------------------------------------------------|
Добавлено: 21.06.2012
Другие материалы по этой песне:
  • Аккорды и текст

Страница создана 21.06.2012
http://primanota.ru/in-her-own-words/we-fight-chords.htm
Привет, Гость.
Предлагаем пройти революционный курс по гитаре.
Подарок от PrimaNota.Ru, забирай!