PrimaNota.ru - самый крупный в мире бесплатный архив песенных текстов, аккордов, табулатур и нот


In Gowan Ring - The Seer And The Seen - таба, видео

Регистрация Запомнить меня
Войти через:  Facebook Google Twitter Vk Yandex Mail.ru

In Gowan Ring - The Seer And The Seen - таба, видео

Печатать
Просмотров: 114
-------------------------------------------------------------------------------------
                          THE SEER AND THE SEEN - In Gowan Ring
-------------------------------------------------------------------------------------
Tab by: Wehmutshall (wehmutshall@gmail.com)
Capo IV

INTRO
e|-0-----------|-0-------0---|-1---0-------|-------------|-------------|-------------|
B|---1-----1---|-----3-------|---------3---|-1-----------|-0-----------|-3-----1p0---|
G|-----2-----2-|-----------2-|---2---2---2-|-------2-----|-------2p0---|-----------0-|
D|-------2-----|-------------|-------------|-----2---2---|-----0-----0-|-----0-------|
A|-0-----------|-------------|-------------|-0---------0-|-------------|-------------|
E|-------------|-------------|-------------|-------------|-0-----------|-3-----------|

                              VERSE 1
e|-------------|-------------|-0-------0---|-0-----------|-1---1---1---|-0-----------|
B|-1-------0---|-------------|-----3-------|---------1---|-------------|---------1---|
G|-------------|-2-------2---|-----------2-|-----2-------|---2---2---2-|-----2-----2-|
D|-----2-------|-----2-----2-|-------------|-----------2-|-------------|-------------|
A|-0-----------|-0-----------|-0-----------|-0-----------|-------------|-0-----------|
E|-------------|-------------|-------------|-------------|-------------|-------------|

e|-------------|-------------|-------------|-------------|-0-----------|-0-------0---|
B|-0-----------|-3-----1p0---|-1-------0---|-1-----------|-----3---1---|-------3-----|
G|-------2p0---|-----------0-|-----------2-|---------2---|-----------2-|-----------2-|
D|-----0-----0-|-----0-------|-----2-------|-----2-----2-|-------------|-------------|
A|-------------|-------------|-0-----------|-0-----------|-0-----------|-0-----------|
E|-0-----------|-3-----------|-------------|-------------|-------------|-------------|

e|-1---0-------|-------------|-------------|-------------|-------------|---------0---|
B|---------3p0-|-1-------1---|-0-----------|-3-----1p0---|-1-------0---|-------------|
G|---2---2-----|-----2-------|-------2p0---|-----------0-|-------------|-2-----------|
D|-------------|---2---2---2-|-----------0-|-----0-------|-----2-------|-------------|
A|-------------|-0-----------|-------------|-------------|-0-----------|-0-----------|
E|-------------|-------------|-0-----------|-3-----------|-------------|-------------|


CHORUS
e|-1-----0-----|-------0h1p0-|-0-----------|-------------|-------------|-------------|
B|---------3---|-3-----------|---------1---|-------------|-0-----------|-3-----1p0---|
G|-----2-------|-----0-------|-----0-------|-2-------2---|-------2p0---|-----------0-|
D|-0-----------|-------------|-------------|-----2-----2-|-----0-----0-|-----0-------|
A|-------------|-------------|-3-----------|-0-----------|-------------|-------------|
E|-------------|-3-----------|-------------|-------------|-0-----------|-3-----------|

e|-------------|-0-----------|-1-----0-----|-------0h1p0-|-0-----------|-------------|
B|-1-------3---|-------------|-------------|-3-----------|---------1---|-------------|
G|-----------2-|-------------|-----2-------|-----0-------|-----0-----0-|-2-------2---|
D|-----2-------|-------------|-0-----------|-------------|-------------|-----2-----2-|
A|-0-----------|-0-----------|-------------|-------------|-3-----------|-0-----------|
E|-------------|-------------|-------------|-3-----------|-------------|-------------|

                                                          BRIDGE
e|-------------|-------------|-------------|-----0-------|-0-------0---|-1---0-------|
B|-0-----------|-3-----1p0---|-1-------0---|-------1-----|-----3-------|---------3---|
G|-------2p0---|-----------0-|-------2-----|-2-------2---|-2-----------|-2-----2---2-|
D|-----0-----0-|-----0-------|-----2-------|---2-------2-|-------------|-------------|
A|-------------|-------------|-0-----------|-0-----------|-------------|-------------|
E|-0-----------|-3-----------|-------------|-------------|-------------|-------------|

e|-------------|-------------|-------------|-------------|---------0---|
B|-1-------1---|-0-----------|-3-----1p0---|-1-------0---|-------------|
G|-----2-----2-|-------2p0---|-----------0-|-------------|-2---------2-|
D|-------2-----|-----0-----0-|-----0-------|-----2-------|-----2-------|
A|-0-----------|-------------|-------------|-0-----------|-0-----------|
E|-------------|-0-----------|-3-----------|-------------|-------------|


VERSE 2
e|-0---1---3---|-1---0-----0-|-1---0-------|-------------|-------------|-------------|
B|-------------|---------3---|---------3p0-|---------1---|-0-----------|-3-----1p0---|
G|-------2-----|-------------|-------------|-2-----------|-------2p0---|-----------0-|
D|-------------|-------------|-------------|-----2-----2-|-----0-----0-|-----0-------|
A|-0-----------|-0-----------|-------------|-0-----------|-------------|-------------|
E|-------------|-------------|-------------|-------------|-0-----------|-3-----------|

e|-------------|---------0---|-0-------0---|-0-------0---|-1---0-------|-------------|
B|-1-------0---|-------------|-----3-------|-----3-------|---------3p0-|-1-----------|
G|-------------|-2---------2-|-----------2-|-----------2-|---2---2-----|-----2-------|
D|-----2-------|-----2-------|-------------|-------------|-------------|---------2---|
A|-0-----------|-0-----------|-0-----------|-0-----------|-------------|-0-----------|
E|-------------|-------------|-------------|-------------|-------------|-----------0-|

e|-------------|-------------|-------------|-------------|---------0---|
B|-0-----------|-3-----1p0---|-1-------0---|---------0h1-|-------------|
G|-------2p0---|-----------0-|-------------|-2-----------|-2-----------|
D|-----------0-|-----0-------|-----2-------|-----2-------|-----2-------|
A|-------------|-------------|-0-----------|-0-----------|-0-----------|
E|-0-----------|-3-----------|-------------|-------------|-------------|

Repeat (variation of) CHORUS, VERSE 1, CHORUS

OUTRO
e|-----0-------|-0-------0---|-1---0-------|-------------|
B|-------1---1-|-----3-----0-|---------3p0-|-1-------1---|
G|---------2---|-------------|---2---2-----|-----2-----2-|
D|-------------|-------------|-------------|-------2-----|
A|-------------|-0-----------|-------------|-0-----------|
E|-------------|-------------|-------------|-------------|

e|-------------|-------------|-------------|-------------|
B|-0-----------|-3-----1p0---|-1-------0h1-|-------------|
G|-------2p0---|-----------0-|-------------|-2-----------|
D|-----0-----0-|-----0-------|-----2-------|-------------|
A|-------------|-------------|-0-----------|-0-----------|
E|-0-----------|-3-----------|-------------|-------------|
Добавлено: 07.06.2016
Другие материалы по этой песне:
  • Аккорды и текст

Страница создана 07.06.2016
http://primanota.ru/in-gowan-ring/seer-and-seen-chords.htm
Привет, Гость.
Предлагаем пройти революционный курс по гитаре.
Подарок от PrimaNota.Ru, забирай!