PrimaNota.ru - самый крупный в мире бесплатный архив песенных текстов, аккордов, табулатур и нот


In Gowan Ring - The Orb Weavers - аккорды и текст, видео

Регистрация Запомнить меня
Войти через:  Facebook Google Twitter Vk Yandex Mail.ru

In Gowan Ring - The Orb Weavers - аккорды и текст, видео

Печатать
Просмотров: 112
The Orb Weavers
In Gowan Ring
THE ORB WEAVERS - In Gowan Ring
-------------------------------
Transcribed by: Wehmutshall


Dm            Am        Bb               Am
Once upon the moment of beauty laid long past 

    Bb                     Dm         Am        A        
the itch on the cheek of a mute mouth clasped

     Bb                        Dm             Am                   A
In a twirled looking glass, to go or stay, in course at its own display

Gm              Dm               Bb                     Asus2  Am  A  Asus4
A pot, a pan, a cutlery board, a pepper and black spice tray

Dm              Am        Bb             Am
Time spooled, unspinning, Life scrolls unravel

    Gm           Dm               Bb                    Am
The telling tale wends, bends and breaks these tomes we travel

Bb         Dm       Am    A
Over and again we abide

    Bb                    A                       D5    D#5 (repeat D5 and D#5)
but which side now of the Looking-glass façade am I? 


Dm                  Am            Bb                 Am
Memories haunt like diamonds, Reminiscence swirls as smoke

Bb               Dm        Am                     A
Nettles in the morning, At night steeped straw of oat

Bb                  Dm            Am           A  
Petals of jasmine, anemones, In a water bowl afloat

    Gm                 Dm                 Bb                  Asus2 Am A Asus4
How grace arranged the chance array, Come eventide's shifting glow

Dm                Am              Bb                      Am
Bend and stretch, swing and sway, I am as a snake in your hands

       Gm               Dm                          Bb                         Am
Wading loose as oars of two creaky boats, that play patterns with silt on the sand

Bb                 Dm
Black coruscation, loam liquid beads

        Bb                A              Dm   Bb   Asus4  A
The Orb Weavers spin the length of their wheels...


------------------------------------------------------
Bp:    x1333x
Gm:    355333
Asus2: x02200
Asus4: x02230
D5:    x577x5
D#5:   x688x6

The picking pattern is like this:

e|-------1-----------1-----|-------0-----------0-----|
B|---3-----3-----3-----3---|---1-----1-----1-----1---|
G|-----2-----2-----2-----2-|-----2-----2-----2-----2-|
D|-0-----------0-----------|-------------2-----------|
A|-------------------------|-0-----------------------|
E|-------------------------|-------------------------|

e|-------------------------|-------0-----------0-----|
B|-------3-----------3-----|---1-----1-----1-----1---|
G|---3-----3-----3-----3---|-----2-----2-----2-----2-|
D|-----3-----3-----3-----3-|-------------2-----------|
A|-1-----------1-----------|-0-----------------------|
E|-------------------------|-------------------------|
Добавлено: 29.12.2015
Другие материалы по этой песне:
  • Аккорды и текст

Страница создана 29.12.2015
http://primanota.ru/in-gowan-ring/orb-weavers-chords.htm
Привет, Гость.
Предлагаем пройти революционный курс по гитаре.
Подарок от PrimaNota.Ru, забирай!