PrimaNota.ru - самый крупный в мире бесплатный архив песенных текстов, аккордов, табулатур и нот


In Flames - X-mas Song - таба, видео

Регистрация Запомнить меня
Войти через:  Facebook Google Twitter Vk Yandex Mail.ru

In Flames - X-mas Song - таба, видео

Печатать
Просмотров: 101
Xmas

In Flames

Guitar 1 (Jesper) (C.F.Bb.Eb.G.C)

|------------------------------------------------------------------|
|------------------------------10--8-7----7--------7---------10--8-|
|--7------7------7--7--7---------------9----9-7--7-----------------|
|---776-7--776-7--77-77-776-7------------------------7h9p7---------|
|------------------------------------------------------------------|
|------------------------------------------------------------------|

|------------------------------------------------------------------|
|-7----10-8-8h10p8/7h8--------------7-8-10----7-8--7---------------|
|----------------------9---9-99-7-9---------9--------9-7--9-99-7-9-|
|---9--------------------------------------------------------------|
|------------------------------------------------------------------|
|------------------------------------------------------------------|

|-----------------9------------------------------------------------|
|-7-8-10--9-10-12---10---10--8-7----7--------7--------10--8-7---10-|
|--------------------------------9----9-7--7-----------------------|
|-----------------------------------------------7h9p7---------9----|
|------------------------------------------------------------------|
|------------------------------------------------------------------|

|-----------------------------------------------------------------|
|--8-8h10p8/7h8--------------7-8-10---7-8--7---------------7-8-10-|
|---------------9---9-99-7-9--------9--------9-7--9-99-7-9--------|
|-----------------------------------------------------------------|
|-----------------------------------------------------------------|
|-----------------------------------------------------------------|

|---------9----------------------------------|
|-9-10-12---10-------------------------------|
|----------------7------7------7--7--7--7-9--|
|-----------------776-7--776-7--77-77-6------|
|--------------------------------------------|
|--------------------------------------------|
Добавлено: 14.09.2013
Другие материалы по этой песне:

Страница создана 04.07.2012
http://primanota.ru/in-flames/x-mas-song-chords.htm
Привет, Гость.
Предлагаем пройти революционный курс по гитаре.
Подарок от PrimaNota.Ru, забирай!