PrimaNota.ru - самый крупный в мире бесплатный архив песенных текстов, аккордов, табулатур и нот


In Flames - Rusted Nail - таба, видео

Регистрация Запомнить меня
Войти через:  Facebook Google Twitter Vk Yandex Mail.ru

In Flames - Rusted Nail - таба, видео

Печатать
Просмотров: 195
Уроки эстрадного вокала в Санкт-Петербурге
-------------------------------------------------------------------------------
                             
Rusted Nail - In Flames
-------------------------------------------------------------------------------
Tabbed by:JRR
Please Rate or Comment Thanx


Tuning:A# F A# D# G C

Guitar 1 {Clean}
|---------------------------------------------------------------------------|
|------10-10-------10-10-------10-10-------10-10---------13-13---------13-13|
|-7-7---------7-7---------7-7---------7-7---------10-10---------10-10-------|
|---------------------------------------------------------------------------|
|---------------------------------------------------------------------------|
|---------------------------------------------------------------------------|
Guitar 2 
|---------------------------------------------------------------------------|
|---------------------------------------------------------------------------|
|---------------------------------------------------------------------------|
|---------------------------------------------------------------------------|
|---------------------------------------------------------------------------|
|---------------------------------------------------------------------------|


Guitar 1 {Clean}
|---------------------------------------------------------------------------|
|---------13-13---------13-13-------13-13-------13-13-------13-13------13-13|
|--10-10---------10-10---------9-9---------9-9---------9-9--------9-9-------|
|---------------------------------------------------------------------------|
|---------------------------------------------------------------------------|
|---------------------------------------------------------------------------|
Guitar 2
|---------------------------------------------------------------------------|
|---------------------------------------------------------------------------|
|---------------------------------------------------------------------------|
|---------------------------------------------------------------------------|
|---------------------------------------------------------------------------|
|---------------------------------------------------------------------------|


Guitar 1 {Clean}
|---------------------------------------------------------------------------|
|-------11-11-------11-11-------11-11-------11-11-------10-10-------10-10---|
|--7-7---------7-7---------7-7---------7-7---------7-7---------7-7---------7|
|---------------------------------------------------------------------------|
|---------------------------------------------------------------------------|
|---------------------------------------------------------------------------|
Guitar 2
|---------------------------------------------------------------------------|
|---------------------------------------------------------------------------|
|---------------------------------------------------------------------------|
|--------------------------------------------------------------------7-9-10\|
|-----------------------------------------------------------------/7--------|
|---------------------------------------------------------------------------|


Guitar 1 {Clean}
|---------------------------------------------------------------------------|
|----10-10-------10-10---------13-13---------13-13---------13-13---------13-|
|-7---------7-7---------10-10---------10-10---------10-10---------10-10-----|
|---------------------------------------------------------------------------|
|---------------------------------------------------------------------------|
|---------------------------------------------------------------------------|
Guitar 2
|---------------------------------------------------------------------------|
|---------------------------------------------------------------------6-8/10|
|--------10-12-12/14-12-10\9/10---/7-5--------------------7-9-10\--/7-------|
|---/12---------------------------------8-7-8-3/5\3---/7--------------------|
|---------------------------------------------------------------------------|
|---------------------------------------------------------------------------|


Guitar 1 
|---------------------------------------------------------------------------|
|-13-------13-13-------13-13-------13-13-------13-13-------11-11------11-11-|
|-----9-9---------9-9---------9-9---------9-9---------7-7---------7-7-------|
|---------------------------------------------------------------------------|
|---------------------------------------------------------------------------|
|---------------------------------------------------------------------------|
Guitar 2 
|---------------------------------------------------------------------------|
|-8-6\5/6-6/11-10\8-6-------------------------------------------------------|
|---------------------------------------------------------------------------|
|---------------------------------------------------------------------------|
|---------------------------------------------------------------------------|
|---------------------------------------------------------------------------|

************************************

| /   slide up
| \   slide down


************************************
Добавлено: 29.10.2015
Другие материалы по этой песне:

Страница создана 23.11.2014
http://primanota.ru/in-flames/rusted-nail-chords.htm
Привет, Гость.
Предлагаем пройти революционный курс по гитаре.
Подарок от PrimaNota.Ru, забирай!