PrimaNota.ru - самый крупный в мире бесплатный архив песенных текстов, аккордов, табулатур и нот


In Flames - Reflect The Storm - текст песни, таба, видео

Регистрация Запомнить меня
Войти через:  Facebook Google Twitter Vk Yandex Mail.ru

In Flames - Reflect The Storm - текст песни, таба, видео

Печатать
Просмотров: 269
Tabed by iowa294
band In flames
song reflect the storm intro

tunning A# F A# D# G# C drop A#


|--------------|
|--------5h6p5-|
|--------------|  repeat a couple of times play 2 times then play
|-0-0-0--------|
|--------------|
|--------------|

|--------------|
|--------------|     < this  once then play the intro again
|--------5h6---|
|--------------|
|--0-0-0-------|
|--------------|
verse
|------------------------------------------------------------------------------------------------------|
|------------------------------------------------------------------------------------------------------|  2X
|-----------------7-7-------8---                                            |-0-0---12-12-0-0-----0-0--|
|------------------------------------------------------------------------------------------------------|
|------------------------------------------------------------------------------------------------------|
verse 2
|------------------------------|
|------------------------------|  2X   10 are tens
|------------------------------|
|-0-0-12-12-0-0-10-10-0-0-13---|
|------------------------------|
|------------------------------|

  pre chorus
|-------------------------------|
|-------------------------------|
|----------111111-12-14-14-14---|
|-777--777-x-x--x-x--x---x-x----|
|-777--777-9-9--9-10-12-12-12---|
|-777--777----------------------|

2nd pre chorus
|----------------------------------|
|----------------------------------|
|----------14-14-14-15-17-17-17----|
|-555--555-x--x--x--x--x--x--x-----|
|-555--555-12-12-12-13-15-15-15----|
|-555--555-------------------------|

chorus
|---------------------------------|
|-33333---------------------------|
|-22222---------------------------| 2x
|-00000--22222-5555---------------|
|-00000--22222-5555--9-7-5-7-5----|
|-00000--22222-5555---------------|

play  verse 1 2x then verse 2 then the chorus andthen the intro i dont have the solo  
i will try to get it, thats it its not 100% plz tell me how i can make it better
Добавлено: 01.07.2012
Другие материалы по этой песне:

Страница создана 22.03.2012
http://primanota.ru/in-flames/reflect-the-storm-chords.htm
Привет, Гость.
Предлагаем пройти революционный курс по гитаре.
Подарок от PrimaNota.Ru, забирай!