PrimaNota.ru - самый крупный в мире бесплатный архив песенных текстов, аккордов, табулатур и нот


In Flames - Pallar Anders Visa - аккорды и текст, таба, видео

Регистрация Запомнить меня
Войти через:  Facebook Google Twitter Vk Yandex Mail.ru

In Flames - Pallar Anders Visa - аккорды и текст, таба, видео

Печатать
Просмотров: 456
Авторы музыки: Jesper Strömblad, Björn Gelotte
Авторы текста: Anders Fridén, Niklas Sundin
Pallar Anders Visa
In Flames
.  - palm mute                          /  - slide up to
  - slide down to                      ~  - vibrato
"  - tremelo picking                    () - ghost note
p  - pull off                           h  - hammer-on 
tr - trill notes                        fb - full bend (1step)
< > - harmonic

IN FLAMES-PALLAR ANDERS VISA

Tuning: C# (C#,F#,B,E,G#,C#)

Gtr I = Lead Gtr
Gtr II = Rhythm Gtr

Opening Riff
|--------0---------------0---------------0---------0--|
|----------1---------------1---------------1-------1--|
|------2-----2-------2-------2---------2-----2-----2--|Gtr II
|----2---------2---2---2-------2-----2---------2---2--|
|-0--------------0---------------0-----------------0--|
------------------------------------------|


Lead Gtr
------------------------------------------|
|-------h---------------------------------------------|
|----7-79-9---------------------------hpp-------------|Gtr I
|-10--------10-7~-7-9-10-10-7--10-9--7976---6-9-7~----|
------------------------------7-----------|
------------------------------------------|


------------------------------------------|
|-------h-------------h-------------------------------|
|----7-79-9-9/10-7-9-910-10-7~--7--------7----7-10-9~-|Gtr I
|-10------------------------------10--10---10---------|
------------------------------------------|
------------------------------------------|


------------------------------------------|
------------------------------------------|
|-9-7-9---9-------------7-9------------p--------------|Gtr I
10--10-9-10-----10---7--7-9-7-------------|
------------------------------10---7------|
------------------------------------------|


------------------------------------------|
------------hp----------------------------|
------9-7--797----------hpp---------------|Gtr I
|---7-7-9-10-9-10----------10-7-9--7976---6-9-7-------|
|-7-------------------------------------7-------------|
------------------------------------------|


Rhythm Gtr
|---------0---------------0-------------------------------0--------|
1---------------1-------------0-----------------1------|
|-------2-----2---------2-----2-------------1-----------2-----2----|Gtr
----2-----2---------2-------2-----2-------2---------2--| II
|-0---------------0-------------------2---------2-0----------------|
----------------------0--------------------------------|


|---------0---------------1---------------0--------0-----------0---|
1-----------3---3---------------0--------0---3-----0---|   
|-------2-----2-------2-------2---------------1------------1-----1-|Gtr   
----2-0-------------0-------2-------2------------2-----| II
|-0-----------------------------------2----------------2-----------|
----------------------0--------------------------------|


|---------0---------------0----------------------------------------|
1---------------0-------------1------------------------|
|-------2-----2---------------1---------2---2-------------0--------|Gtr 
----2-------2-------2-----2-------2---------2----------| II
|-0-------------------2-----------0-------------0-----2------------|
------0-------------------------------0----------------|


-------------------------------------------------------|
------------------------------0------------------------|
|-------2-----------------------------------1----------------------|Gtr
--0-------0-------3---------2-----2--------------------| II
|-0---------2---0---0---0---3---3-----2-----------0----------------|
|---------3-------2-------1-------0-------------0------------------|


Harmony Gtr
------------------------------------------|
|-------h---------------------------------------------|
|----7-79-9---------------------------hpp-------------|Gtr I
|-10--------10-7~-7-9-10-10-7--10-9--7976---6-9-7~----|
------------------------------7-----------|
------------------------------------------|


------------------------------------------|
|-------h-------------h-------------------------------|
|----7-79-9-9/10-7-9-910-10-7~--7--------7----7-10-9~-|Gtr I
|-10------------------------------10--10---10---------|
------------------------------------------|
------------------------------------------|


------------------------------------------|
------------------------------------------|
|-9-7-9---9-------------7-9--9---------h-p------------|Gtr I
10--10-9-10----------10--101210--9--------|
-----------------------------------10-----|
------------------------------------------|


------------------------------------------|
---------------------h-p------------------|
---9----9--12--10--101210-9---------h-p---|Gtr I
|---10-9-10-12---12---------------------10-12-101210--|
------------------------------------------|
------------------------------------------|

------------------------------------------|
------------------------------------------|
------------------------------------------|Gtr I
|-9-----9--12--10~------------------------------------|
|---10------------------------------------------------|
------------------------------------------|
Добавлено: 22.04.2012
Другие материалы по этой песне:

Страница создана 05.03.2012
http://primanota.ru/in-flames/pallar-anders-visa-chords.htm
Привет, Гость.
Предлагаем пройти революционный курс по гитаре.
Подарок от PrimaNota.Ru, забирай!