PrimaNota.ru - самый крупный в мире бесплатный архив песенных текстов, аккордов, табулатур и нот


In Flames - Kop Varm Korv - таба, видео

Регистрация Запомнить меня
Войти через:  Facebook Google Twitter Vk Yandex Mail.ru

In Flames - Kop Varm Korv - таба, видео

Печатать
Просмотров: 153
|-------------------------------------------------|
|------7-5-3-7-5-3-3-3-3-3-3-3-7-5-3--------------|
|-------------------------------------------------|
|-------------------------------------------------|
|-------------------------------------------------|

|-------------------------------------------------|
|------7-5-3-7-5-3-3-3-3-3-3-3-7-5-3--------------|
|-------------------------------------------------|
|-------------------------------------------------|
|-------------------------------------------------|

|-------------------------------------------------|
|------7-5-3-7-5-3-3-3-3-3-3-3-7-5-3--------------|
|-------------------------------------------------|
|-------------------------------------------------|
|-------------------------------------------------|

|-------------------------------------------------|
|------7-5-3-7-5-3-3-3-3-3-3-3-7-5-3--------------|
|-------------------------------------------------|
|-------------------------------------------------|
|-------------------------------------------------|

|-------------------------------------------------|
|------7-5-3-7-5-3-3-3-3-3-3-3-7-5-3--------------|
|-------------------------------------------------|
|-------------------------------------------------|
|-------------------------------------------------|

|-------------------------------------------------|
|------7-5-3-7-5-3-3-3-3-3-3-3-7-5-3--------------|
|-------------------------------------------------|
|-------------------------------------------------|
|-------------------------------------------------|






KÖP VARM TJORRE
Добавлено: 07.07.2012
Другие материалы по этой песне:
  • Аккорды и текст

Страница создана 07.07.2012
http://primanota.ru/in-flames/kop-varm-korv-chords.htm
Привет, Гость.
Предлагаем пройти революционный курс по гитаре.
Подарок от PrimaNota.Ru, забирай!