PrimaNota.ru - самый крупный в мире бесплатный архив песенных текстов, аккордов, табулатур и нот


In Flames - Im The Highway - текст песни, таба, видео

Регистрация Запомнить меня
Войти через:  Facebook Google Twitter Vk Yandex Mail.ru

In Flames - Im The Highway - текст песни, таба, видео

Печатать
Просмотров: 471
Авторы музыки: Jesper Strömblad, Anders Fridén, Björn Gelotte
Авторы текста: Jesper Strömblad, Anders Fridén, Björn Gelotte
In Flames - I'm the Highway 




      PM PM PM  PM PM PM  PM PM    PM PM PM PM               
      E  E  E   E  E  E   E  E     E  E  E  E  E   E   Q     
E||-----------------------------|---------------------------|
B||-----------------------------|---------------------------|
G||---10---------10--------10---|--0--0--7--0--7S--9S--5----|
D||------8--8--8----8--8--8--8--|---------------------------|
A||-----------------------------|---------------------------|
D||-----------------------------|---------------------------|


     PM PM    PM PM    PM    PM PM PM PM                
  E  E  E  E  E  E  E  E     E  E  E  E  E   E   Q      
--------------------------|---------------------------||
--------------------------|---------------------------||
--7--------7--------7-----|--------5-----5S--7---5----||
-----0--0-----0--0-----0--|---------------------------||
--------------------------|--7--7-----7---------------||
--------------------------|---------------------------||

Not so sure on the last part. 
Добавлено: 13.04.2012
Другие материалы по этой песне:

Страница создана 24.02.2012
http://primanota.ru/in-flames/im-the-highway-chords.htm
Привет, Гость.
Предлагаем пройти революционный курс по гитаре.
Подарок от PrimaNota.Ru, забирай!