PrimaNota.ru - самый крупный в мире бесплатный архив песенных текстов, аккордов, табулатур и нот


In Flames - Hergaleten - таба

Регистрация Запомнить меня
Войти через:  Facebook Google Twitter Vk Yandex Mail.ru

In Flames - Hergaleten - таба

Печатать
Просмотров: 141
From the Album LUNAR STRAIN

Transcribed by: Tomas Larsson [metal_t@hotmail.com]

It sounds very nice if you play it with an acoustic guitar.
Please mail me if you_ve done the rythm guitar or have any suggestions.


  Part 1:   Play twice
E|---------------------------------------------------------------------------
B|--10--10---11-10/11\10--8-8------------------------------------------------
G|--------------------------------10-10--7-----10-10---9-9-----6---9---7/9\7-
D|----------------------------------------------------------7----------------
A|---------------------------------------------------------------------------
e|---------------------------------------------------------------------------

E|------------------|
B|------------------|
G|--6--7--9--10--12-|
D|------------------|
A|------------------|
e|------------------|

E|--------------------------------------------------------------------------|
B|--10--10---11-10/11\10--8-8-----------------------------------------------|
G|--------------------------------10-10--7-----10-10---9-9-----6---9--7-7---|
D|----------------------------------------------------------7---------------|
A|--------------------------------------------------------------------------|
e|--------------------------------------------------------------------------|

- - - - - - - - - - - - - - - - - - - - - - - - - - - - - - - - - - - - - - -

  Part 2:
E|--------------------------------------8--8----10--8-----------------------|
B|------8--10--------8--10--11----8--------------------11-11---10-10---8----|
G|--10---------10--------------------------------------------------------10-|
D|--------------------------------------------------------------------------|
A|--------------------------------------------------------------------------|
e|--------------------------------------------------------------------------|

E|--------------------------------------8--8----10--8-----------------------|
B|------8--10--------8--10--11----8--------------------11-11---10-10--------|
G|--10---------10-----------------------------------------------------------|
D|--------------------------------------------------------------------------|
A|--------------------------------------------------------------------------|
e|--------------------------------------------------------------------------|

- - - - - - - - - - - - - - - - - - - - - - - - - - - - - - - - - - - - - - -
Play Part 1 once
- - - - - - - - - - - - - - - - - - - - - - - - - - - - - - - - - - - - - - -

  Part 3:
E|--------------------------------------------------------------------------|
B|----------------------------------------------------10--11--10------------|
G|-7----6--7-----9----7--9-----10--12--10--9--10--12--------------12--10--9-|
D|--------------------------------------------------------------------------|
A|--------------------------------------------------------------------------|
e|--------------------------------------------------------------------------|

E|--------------------------------------------------------------------------|
B|----------------------------------------------------10--11--12------------|
G|-7----6--7-----9----7--9-----10--12--10--9--10--12------------------------|
D|--------------------------------------------------------------------------|
A|--------------------------------------------------------------------------|
e|--------------------------------------------------------------------------|

E|--------------------------------------------------------------------------|
B|-13---11-----------10-11-10-----------10---10-----------------------------|
G|---------12----12-------------12-10------------12-9----9-10-12-10-9-------|
D|---------------------------------------------------------------------12---|
A|--------------------------------------------------------------------------|
e|--------------------------------------------------------------------------|

E|-10---10------------------------------------------------------------------|
B|---------11---------10-11-10----------------10----------------------------|
G|------------12---12----------12-10----10-12----12-10--9-----6--9---7-7----|
D|---------------------------------------------------------7----------------|
A|--------------------------------------------------------------------------|
e|--------------------------------------------------------------------------|
Добавлено: 28.05.2012
Другие материалы по этой песне:
  • Аккорды и текст

Страница создана 28.05.2012
http://primanota.ru/in-flames/hergaleten-chords.htm
Привет, Гость.
Предлагаем пройти революционный курс по гитаре.
Подарок от PrimaNota.Ru, забирай!