PrimaNota.ru - самый крупный в мире бесплатный архив песенных текстов, аккордов, табулатур и нот


In Flames - Evil In A Closet - текст песни, таба, бас-таба, видео

Регистрация Запомнить меня
Войти через:  Facebook Google Twitter Vk Yandex Mail.ru

In Flames - Evil In A Closet - текст песни, таба, бас-таба, видео

Печатать
Просмотров: 372
Авторы: Jesper Strömblad, Anders Fridén, Björn Gelotte

this song is from soundtrack to your escape. its fairly easy and fun to play!

/-slide up     b-bend        p-pull off
\-slide down   h-hammer on   X-scratch


tuning- C F A# D# G C (tuned down to C, all strings down two steps)

intro:

|------5------------------------|
|------5------------------------|
|--------------5-4---4h5p4------|
|----7--------5--5--5------7----|
|---7--------3------------------|
|--5----------------------------|


|------5------------------------|
|------5------------------------|
|--------------5-4----4h5-4-----|
|----7--------5--5---5---5------|
|---7--------3------------------|
|--5----------------------------|


|------5------------------------|
|------5------------------------|
|--------------5-4---4h5p4------|
|----7--------5--5--5------7----|
|---7--------3------------------|
|--5----------------------------|


|------5------------------------|
|------5--------------------5---|
|------------------0-------5-5--|
|----7-----------4--4-----7---7-|
|---7--------3/5-----5---7------|
|--5--------------------5-------|


Verses:

|------5------------------------|
|------5------------------------|
|--------------5-4---4h5p4------|
|----7--------5--5--5------7----|
|---7--------3------------------|
|--5----------------------------|


|------5------------------------|
|------5------------------------|
|--------------5-4----4h5-4-----|
|----7--------5--5---5---5------|
|---7--------3------------------|
|--5----------------------------|


|------5------------------------|
|------5------------------------|
|--------------5-4---4h5p4------|
|----7--------5--5--5------7----|
|---7--------3------------------|
|--5----------------------------|


|------5------------------------|
|------5--------------------5---|
|------------------0-------5-5--|
|----7-----------4--4-----7---7-|
|---7--------3/5-----5---7------|
|--5--------------------5-------|


part that comes after first verse, not too sure about it:

|-------------------------------|
|-------6-----------------------|
|-----7---7---7-------10---9p7h9|
|---7-------7------10-----7-----|
|-5--------------8--------------|
|-------------------------------|

|-------------------------------|
|---5---3h5p3-3------7----------|
|---5--------5-------9----------|
|--------------------9----------|
|-3----------------7------------|
|-------------------------------|

|-------------------------------|
|-------3---------------6-------|
|-----3---3---3-------7---7---7-|
|---3-------3-------7-------7---|
|-1---------------5-------------|
|-------------------------------|

|-------------------------------|
|-------7-----------------------|
|-----9---9---9----------9------|
|---9-------9----------10-10--10|
|-7------------------10-----10--|
|----------------7/8------------|

|-------------------------------|
|-----6-5------5h6--5h6---------|
|-----7-7-----------------------|
|-----7-7-----------------------|
|---7--------7------------------|
|-5-----------------------------|


pre-chorus:

|-------------------------------|
|-------------------------------|
|-------------------------------| X4
|-7--XXXX---5--XXXX---1--XXXX--2|   
|-5--XXXX---3--XXXX---3--XXXX--0|
|-------------------------------|


chorus:

|-------------------------------|
|-------------------------------|
|-------------------------------|
|-77777777-33333333-55555555----|
|-55555555-11111111-33333333----|
|-------------------------------|

|-------------------------------|
|-------------------------------|
|-------------------------------|
|-22222222-33333333-------------|
|-00000000-11111111-33333333----|
|-------------------11111111----|

|-------------------------------|
|-------------------------------|
|-------------------------------|
|-------------------------------|
|-22222222-55555555-------------|
|-00000000-33333333-------------| play two times


bridge:

|----------------------------------|
|----------------------------------|
|----------------------------------|
|-77XX--7777-7777--55XX--5555-4444-|
|-55XX--5555-5555--33XX--3333-2222-|
|----------------------------------|


solo:

|-------------------------------|
|---13----------13h15p13--------|
|-----------12b-----------------|
|-15-----15---------------------|
|-------------------------------|
|-------------------------------|

|-------------------------------|
|-------------------------------|
|-12b--15-14-12-----------------|
|---------------15--14h15p14----|
|----------------------------15-|
|-------------------------------|

|-------------------------------|
|-------------------------------|
|----14--12------14h15p14-------|
|-15--------15------------------|
|-------------------------------|
|-------------------------------|

|-------------------------------|
|----13----------13h15p13-------|
|------------12b----------------|
|-15------15--------------------|
|-------------------------------|
|-------------------------------|

|-------------------------------|
|-15b-17-15---------18-18b-17---|
|----------17-15--17------------|
|---------------15--------------|
|-------------------------------|
|-------------------------------|

|-------------------------------|
|-------18--17--15--17--18--20--|
|-15-17-------------------------|
|-------------------------------|
|-------------------------------|
|-------------------------------|


the chorus one more time


bridge one more time


ends with this riff:

|------------|
|------6-5---|
|------7-7---|
|---7--7-7---|
|-5----------|
|------------|




Добавлено: 31.05.2012
Другие материалы по этой песне:

Страница создана 13.03.2012
http://primanota.ru/in-flames/evil-in-a-closet-chords.htm
Привет, Гость.
Предлагаем пройти революционный курс по гитаре.
Подарок от PrimaNota.Ru, забирай!