PrimaNota.ru - самый крупный в мире бесплатный архив песенных текстов, аккордов, табулатур и нот


In Flames - Everlost Part Ii - аккорды и текст, видео

Регистрация Запомнить меня
Войти через:  Facebook Google Twitter Vk Yandex Mail.ru

In Flames - Everlost Part Ii - аккорды и текст, видео

Печатать
Просмотров: 213
Авторы музыки: Glenn Ljungström, Jesper Strömblad
Авторы текста: Mikael Stanne
Everlost Part Ii
In Flames
                        IN FLAMES - Everlost Part II
                        From the album Lunar Strain

                          Version 1.1 - August 97 

Transcribed by: Richard Broadhead II()

        Check out my homepage with tons of tabs.
        

join the death/black tab mailing list by emailing 

any Questions, Comments, Corrections, or Tabs, please email Rich at:
                

TUNING: D tuning

 Intro
|------------------------------------|
|------------------------------------|
|------------------------------------| GTR I
|---2-5-4-------4/7-9-10-9-----------|
|---------5-2-5------------10-9-7-5--|
|-0----------------------------------|
|
|------------------------------------|
|------------------------------------|
|-----------------2-4-5--4-----------| GTR II
|---2-5-4-------4----------5--4-2-0--|
|---------5-2-5---0------------------|
|-0------------------------0---------|

 First Verse
|------------------------------------|
|-----------------3-5-6-5------------|
|-2-4-5-4-------4---------5-4-2-0----| GTR I
|---------5-2-5---0------------------|
|-0-----------------------0----------|
|------------------------------------|
|
|---------------------5--------------|
|-----------------6-8---8------------|
|-5-7-9-7-------7---------9-7-5------| GTR II
|---------9-5-9---0-------------9----|
|-0-----------------------0----------|
|------------------------------------|

Play First Verse again for a total of two times

Riff A
|-------0-----1-----0-----0-----0-----1-----0------|
|-----1---1-----1-------3---1-----1-----1-------3--|
|---2-------2-----2---2-------2-----2-----2---2----| GTR I
|-2------------------------------------------------|
|--------------------------------------------------|
|--------------------------------------------------|
|
|--------------------------------------------------|
|-------1-----3-----1-----1-----1-----3-----1------|
|-----2---2-----2-------4---2-----2-----2-------4--| GTR II
|---2-------2-----2---2-------2-----2-----2---2----|
|-0------------------------------------------------|
|--------------------------------------------------|

|-------------------*------------------------------|
|-------------------0-----------1-----------1------|
|-------2-----------X---------2---2-------2---2----| GTR I
|-----3---3-------0---0-----2-------2---2-------2--|
|---3-------3---2-------2-0-----------0------------|
|-1-----------3------------------------------------|
|                   * he accidently hit the B string here
|-0-------1-0--------------------------------------| GTR II
|-------------3-------1-0-1----0h1p0---------------| GTR II
|-----------------------------------0/2------------| GTR II
|--------------------------------------------------|
|-3-----------2-----------0-----------0------------| GTR III
|--------------------------------------------------|
|
|--------------------------------------------------|
|--------------------------------------------------|
|--------------------------------------------------| GTR IV
|--------------------------------------------------|
|-7-------8-7-5------------------------------------|
|---------------------8-7-8---7h8p7-3/5------------|

Riff A Again

|--------------------------------------------------|
|-------------------------------1-----------1------|
|-------2-----------0---------2---2-------2---2----| GTR I
|-----3---3-------0---0-----2-------2---2-------2--|
|---3-------3---2-------2-0-----------0------------|
|-1-----------3------------------------------------|
|
|-0-------1-0--------------------------------------| GTR II
|-------------3-------1-0-1-------0----------------| GTR II
|-----------------------------------0/2------------| GTR II
|--------------------------------------------------|
|-3-----------2-----------0-----------0------------| GTR III
|--------------------------------------------------|
|
|--------------------------------------------------|
|--------------------------------------------------|
|--------------------------------------------------| GTR IV
|--------------------------------------------------|
|-7------------------------------------------------|
|---------5-8-7-------5-3-5-----------5------------|

|--------------------------------------------------|
|-------------------------------1-----------1------|
|-------2-----------0---------2---2-------2---2----| GTR I
|-----3---3-------0---0-----2-------2---2-------2--|
|---3-------3---2-------2-0-----------0------------|
|-1-----------3------------------------------------|
|
|-0-------1-0--------------------------------------| GTR II
|-------------3-------1-0-1-------0----------------| GTR II
|-----------------------------------0/2------------| GTR II
|--------------------------------------------------|
|-3-----------2-----------0-----------0------------| GTR III
|--------------------------------------------------|
|
|--------------------------------------------------|
|--------------------------------------------------|
|--------------------------------------------------| GTR IV
|--------------------------------------------------|
|-7-------8-7-5------------------------------------|
|---------------------8-7-8-------7-3/5------------|

 Play Twice
|--------------------------------------------------|
|--------------------------------------------------|
|-------2-----------0------------------------------| GTR I
|-----3---3-------0---0-------7-----7-----7-----7--|
|---3-------3---2-------0---7-----7-----7-----7----|
|-1-----------3-----------5-----7-----8-----7------|
|
|--------------------------------------------------|
|--------------------------------------------------|
|-------2-----------0---------5-----5-----5-----5--| GTR II
|-----3---3-------0---0-----5-----5-----5-----5----|
|---3-------3---2-------0-3-----5-----7-----5------|
|-1-----------3------------------------------------|

For Riff's B and C there could be harmonies but I don't hear them. If there
are harmonies it would be the same idea as Riff A.

Thanks to Eric(Pkubica@aol.com) for fixing the C Chord of this riff
 Riff B
|-------1-----------1-----------0------------0------
|-----3---3-------3---3-----------3------------3----
|---2-------2---2-------0-----0-----0-----0------0--
|-0-----------0-------------2-----------2-----------
|-------------------------3-----------3-------------
|---------------------------------------------------

 continuation of Riff B                      (end of Riff B)
--------0-----------0-----------1-----------1------|
----------1-----------1-------3---3-------3---3----|
------2-----0-----2-----0---2-------2---2-------2--|
----2-----------2---------0-----------0------------|
--0-----------0------------------------------------|
---------------------------------------------------|
 
Play Riff B again for a total of 2 times

 Riff C
|--------------------------------------------------|
|-------------------------------1-----------1------|
|-------2-----------0---------2---2-------2---2----|
|-----3---3-------0---0-----2-------2---2-------2--|
|---3-------3---2-------2-0-----------0------------|
|-1-----------3------------------------------------|

Play Riff C again for a total of two times
Play RIff B twice
Play Riff C four times
Play Riff B once, and begin to fade it out

Volume Swells During The Beginning of The Solo
|-5-------------------7------------------8---------|
|-6-------------------8------------------10--------|
|--------------------------------------------------|
|-3-------------------5------------------7---------|
|--------------------------------------------------|
|--------------------------------------------------|

SOLO

|--------------------------------------------------|
|-10/12-10~----8/10-8-8/10--10~----10~----------|
|--------------------------------------------------|
|--------------------------------------------------|
|--------------------------------------------------|
|--------------------------------------------------|

|---------------------------------------------------------------------------|
|-13/15~-13-10/12~-10~--12p10-----------------------------------------------|
|-----------------------------12p9----------9-------------------------------|   
|----------------------------------12p10h12---10h12p10------------*----------|
|------------------------------------------------------12-10-12~-12/15~---|
|---------------------------------------------------------------------------|
either a bend or a slide, not sure                                                

|-------------10-12-12bh~-----------------------------------------------
|----10-12-13--------------13-12-10-------------------------------------
|-12--------------------------------12-10-9------------*--9-10-12-10-9--
|-------------------------------------------12-10-9-10-12---------------
|-----------------------------------------------------------------------
|-----------------------------------------------------------------------
                                                       * very slight pause

                                               sweep
----------------------------------------------|-----------------------------|
----------------------------------------------|------------------------10---|
----------------------------------------------|---9-9-12p9-12-12-12~~~------|
--12-10-9-------------------------------------|-10--------------------------|
----------12-10-8------------------10-12-12~--|-----------------------------|
------------------12-10-8~-10~--12------------|-----------------------------|

  *                          fade out
|-12-----------------------|------------------------------------------------|
|-15bf~-13p10-10-10~---|-13bf~---10----10-------------------------------|
|--------------------------|------------12----------------------------------|
|--------------------------|------------------12bf-10-etc.. I can't hear-it-|
|--------------------------|----------------------------on my tape anymore--|
|--------------------------|------------------------------------------------|
* as soon as you bend the 15, DON'T let the 12 ring out

        Check out my homepage with tons of tabs.
        

any Questions, Comments, Corrections, or Tabs, please email Rich at:
                
Добавлено: 15.05.2012
Другие материалы по этой песне:

Страница создана 18.03.2012
http://primanota.ru/in-flames/everlost-part-ii-chords.htm
Привет, Гость.
Предлагаем пройти революционный курс по гитаре.
Подарок от PrimaNota.Ru, забирай!