PrimaNota.ru - самый крупный в мире бесплатный архив песенных текстов, аккордов, табулатур и нот


In Flames - Everlost Part I - текст песни, таба, видео

Регистрация Запомнить меня
Войти через:  Facebook Google Twitter Vk Yandex Mail.ru

In Flames - Everlost Part I - текст песни, таба, видео

Печатать
Просмотров: 69
Авторы музыки: Glenn Ljungström, Jesper Strömblad
Авторы текста: Mikael Stanne
Band: In Flames
Album: Lunar Strain
Song: Everlost Part 1


.  - palm mute           /  - slide up to
\  - slide down to       ~  - vibrato
h  - hammer on           b  - Bend
p  - pull off            Suffixes for bend
t  - tap                 f  - full bend    h - half bend
ph - pinched harmonic    q  - quarter bend t - tap bend
*  - see comment         ^  - Hold bend    r release bend
x  - Staccatto           ~  - vibrato bend
,  - slight palm mute    () - ghost note, sustained note
"  - tremolo note        <> - Trill

Tuning D G C F A D

Intro/Main Riff

Guitar 1
|-------------------------------------------------------------------|
|-------------------------------------------------------------------|
|-------------------------------------------------------------------|
|-------------------------------------------------------------------|
|---7-------3---7-2-3-5---------------------------------------------|
|-0---7-3-2---0-----------------------------------------------------|

Guitar 2
|-------------------------------------------------------------------|
|-------------------------------------------------------------------|
|-------------------------------------------------------------------|
|---5-4-2-2-0---5-4-5-7---------------------------------------------|
|-------------------------------------------------------------------|
|-0-----------0-----------------------------------------------------|

Verses

Guitar 1
|-------------------------------------------------------------------|
|-------------------------------------------------------------------|
|-------------------------------------------------------------------|
|-------------------------------------------------------------------|
|-6-6-5-6-8-5-6-5-6-6-5-6-8-5-6-5-----------------------------------|
|---------------------------------6-6-5-6-8-5-6-5-6-6-5-6-8-5-6-5---|







Guitar 2
|-------------------------------------------------------------------|
|-------------------------------------------------------------------|
|-------------------------------------------------------------------|
|-5-5-3-5-6-3-5-3-5-5-3-5-6-3-5-3-----------------------------------|
|---------------------------------5-5-3-5-6-3-5-3-5-5-3-5-6-3-5-3---|
|-------------------------------------------------------------------|

Chorus

Guitar 1
|-------------------------------------------------------------------|
|-------------------------------------------------------------------|
|-------------------------------------------------------------------|
|-------------------------------------------------------------------|
|-7-7-5-5-------3-5-------------------------------------------------|
|---------5--5------------------------------------------------------|

Guitar 2
|-------------------------------------------------------------------|
|-------------------------------------------------------------------|
|-------------------------------------------------------------------|
|-5-9-4-7-10-9--5-4-------------------------------------------------|
|-------------------------------------------------------------------|
|-------------------------------------------------------------------|

Bridge

Guitar 1
|-------------------------------------------------------------------|
|-------------------------------------------------------------------|
|-------------------------------------------------------------------|
|-------------------------------------------------------------------|
|---7-6-7-9-10-9-6-6-7-9-10-12-10-10-10-9-10-12-14-15-14-12-10-9-7-6|
|-0-----------------------------------------------------------------|

Guitar 2
|-------------------------------------------------------------------|
|-------------------------------------------------------------------|
|----4-----4--------------------------------------------------------|
|-2--4--5--4--------------------------------------------------------|
|-2--2--5--2--------------------------------------------------------|
|-0-----3-----------------------------------------------------------|

Solo

Guitar 1
|-------------------------------------------------------------------|
|----12-10----------------------------------------------------------|
|-/9-------12-11-7-7/9-9-9-11-12-11-12-14-12-11-9-------------------|
|-------------------------------------------------------------------|
|-------------------------------------------------------------------|
|-------------------------------------------------------------------|



Guitar 2
|--12h13p12-12h13p12---12-12-12-14-15-14-15-17-15-14-12-------------|
|---------------------8---------------------------------------------|
|-------------------------------------------------------------------|
|-------------------------------------------------------------------|
|-------------------------------------------------------------------|
|-------------------------------------------------------------------|
Добавлено: 29.10.2015
Другие материалы по этой песне:

Страница создана 31.03.2012
http://primanota.ru/in-flames/everlost-part-i-chords.htm
Привет, Гость.
Предлагаем пройти революционный курс по гитаре.
Подарок от PrimaNota.Ru, забирай!