PrimaNota.ru - самый крупный в мире бесплатный архив песенных текстов, аккордов, табулатур и нот


In Flames - Everdying - текст песни, таба, видео

Регистрация Запомнить меня
Войти через:  Facebook Google Twitter Vk Yandex Mail.ru

In Flames - Everdying - текст песни, таба, видео

Печатать
Просмотров: 113
Авторы музыки: In Flames
Авторы текста: Henke Forss
  --------------------------------------------------------------
             In flames - Ever Dying acoustic part
  --------------------------------------------------------------

  Tabbed by: Arnstein Aas, Norway

  Tuning: One whole note down

  First rythm part/"Intro"

   Rythm guitar 1

 |--------------0-----1-----------------0-----1-----------------0-----1-----|
 |--------3-----------------------3-----------------------3-----------------|
 |-----2-----2-----2-----2-----3-----3-----3-----3-----2-----2-----2-----2--|
 |--0-----------------------0-----------------------0-----------------------|
 |--------------------------------------------------------------------------|
 |--------------------------------------------------------------------------|

 |--------------3-----------------------------------------------------------|
 |--------3--------3--------------------------------------------------------|
 |-----5-----5--------0-----------------------------------------------------|
 |--0-----------------------------------------------------------------------|
 |--------------------------------------------------------------------------|
 |--------------------------------------------------------------------------|

   Rythm guitar 2

 |--------------------------------------------------------------------------|
 |--------3-----1-----3-----------3-----1-----3-----------3-----1-----3-----|
 |-----2-----2-----2-----2-----3-----3-----3-----3-----2-----2-----2-----2--|
 |--0-----------------------0-----------------------0-----------------------|
 |--------------------------------------------------------------------------|
 |--------------------------------------------------------------------------|

 |--------------3-----3-----------------------------------------------------|
 |--------3--------3--------------------------------------------------------|
 |-----5-----5--------------------------------------------------------------|
 |--0-----------------------------------------------------------------------|
 |--------------------------------------------------------------------------|
 |--------------------------------------------------------------------------|

   Part 1

   Rythm guitar 1

 |--------------0-----1-----------------0-----1-----------------0-----1-----|
 |--------3-----------------------3-----------------------3-----------------|
 |-----2-----2-----2-----2-----3-----3-----3-----3-----2-----2-----2-----2--|
 |--0-----------------------0-----------------------0-----------------------|
 |--------------------------------------------------------------------------|
 |--------------------------------------------------------------------------|

 |--------------------------|
 |--------------------------|
 |--------3-----------4-----|
 |-----3-----3-----4-----4--|
 |--1-----------2-----------|
 |--------------------------|

 |--------------0-----1-----------------0-----1-----------------0-----1-----|
 |--------3-----------------------3-----------------------3-----------------|
 |-----2-----2-----2-----2-----3-----3-----3-----3-----2-----2-----2-----2--|
 |--0-----------------------0-----------------------0-----------------------|
 |--------------------------------------------------------------------------|
 |--------------------------------------------------------------------------|

 |-----------------------------|
 |-----------------------------|
 |-----------3-----------0-----|
 |--------3-----3-----2-----2--|
 |--0--1-----------3-----------|
 |-----------------------------|

   Solo guitar 1

 |----------------------------------------------------------------------------|
 |--10p8--10--10--10p8---------------10p8--10----------10--10h11--10----------|
 |----------------------9--9h10--10------------10--12-----------------10--12--|
 |----------------------------------------------------------------------------|
 |----------------------------------------------------------------------------|
 |----------------------------------------------------------------------------|


   Solo guitar 2

 |------------------------------------------------------------|
 |--6p5--6--6--6h5-------------6p5--6--------6--6h8--6--------|
 |------------------5--5h7--7----------7--9-------------7--9--|
 |------------------------------------------------------------|
 |------------------------------------------------------------|
 |------------------------------------------------------------|

   Part 2

   Ryhtm guitar

 |--------------------------------------3--------------------0--1-----------|
 |-----------1--1--------------------------0--------------2--------2--------|
 |--------2--------2-----------------0--------0--------3--------------3-----|
 |-----2--------------2-----------0--------------0--0--------------------0--|
 |--0--------------------0-----2--------------------------------------------|
 |--------------------------3-----------------------------------------------|

 |--------------0-----------------------0-----------------------3-----------|
 |-----------1-----1-----------------1-----1-----------------------0--------|
 |--------2-----------2-----------2-----------2--------------0--------0-----|
 |-----2-----------------------2-----------------2--------0--------------0--|
 |--0-----------------------0--------------------------2--------------------|
 |-----------------------3--------------------------3-----------------------|


 |-----------0--1-------------------0---------------------------------------|
 |--------2-------2-----------------1---------------------------------------|
 |-----3-------------3-----------2------------------------------------------|
 |--0-------------------0-----2---------------------------------------------|
 |-------------------------0------------------------------------------------|
 |--------------------------------------------------------------------------|

    Part 3 and ending
 
    Rythm guitar

 ||-------------------------------------------------------------------------|
 ||-------------------------------------------------------------------------|
 ||-------------------------------------------------------------5-----------|
 ||----0--------9--------9--------------4--------4-----------5-----5--------|
 ||--3--------7-----7--------7--------5-----5--------5-----3----------------|
 ||-------0-----------0--------0--7-----------7--------7--------------------|


 |--------------------------------||
 |--------------------------------||
 |--------------------2--------4--||
 |--------5--------2--------4-----|| x 2 
 |-----5-----5--0--------2--------||
 |--3-----------------------------||

 |--------------------0-----------0--|
 |-----------------------0--------0--|
 |-----------------0--------0-----0--|
 |--------------2--------------2--2--|
 |-----------2--------------------2--|
 |--3--2--0-----------------------0--|


    Melody part 2 

    Guitar 1 + Guitar 2

 ||--------------------------------------|
 ||--------------------------------------|
 ||---------------9--7h9p7------7--------|
 ||-----7--9--10------------10-----9--9--|
 ||--7-----------------------------------|
 ||--------------------------------------|

   Guitar 1

 |--------------------------------------||
 |--------------------------------------||
 |--7--7--9--10--9--7-------------------||
 |---------------------10p9--7----------||
 |--------------------------------------||
 |--------------------------------------||

   Guitar 2

 |--------------------------------------||
 |--6--6--8--10--8--6-------------------||
 |---------------------9p7--------------||
 |--------------------------10----------||
 |--------------------------------------||
 |--------------------------------------||

   Melody Part 3 

   Guitar 1 + Guitar 2

 ||-----------------------------------------|
 ||-----------------------------------------|
 ||-------------7--7-------------7--7h9--7--|
 ||--5--7--7s9--------5--7--7s9-------------|
 ||-----------------------------------------|
 ||-----------------------------------------|


  Guitar 1

 |------------------------------------------||
 |--5--7--8--7h8p7--5-----------------------||
 |---------------------7--4--------4-----4--||
 |---------------------------7--5-----7-----||
 |------------------------------------------||
 |------------------------------------------||

  Guitar 2

 |-----5--7--5h7p7--------------------------||
 |--8---------------8--7--5-----------------||
 |---------------------------7--4--7--5--7--||
 |------------------------------------------||
 |------------------------------------------||
 |------------------------------------------||

   01:07 Ending

    Guitar 1

 |-------------------------------------------|
 |-------------------------------------------|
 |-------------------------------------------|
 |--5--4--2----------------------------------|
 |-------------------------------------------|
 |-------------------------------------------|

  Guitar 2

 |-------------------------------------------|
 |-------------------------------------------|
 |--4--2-------------------------------------|
 |--------5--4--2----------------------------|
 |-------------------------------------------|
 |-------------------------------------------|
Добавлено: 29.10.2015
Другие материалы по этой песне:

Страница создана 24.02.2012
http://primanota.ru/in-flames/everdying-chords.htm
Привет, Гость.
Предлагаем пройти революционный курс по гитаре.
Подарок от PrimaNota.Ru, забирай!