PrimaNota.ru - самый крупный в мире бесплатный архив песенных текстов, аккордов, табулатур и нот


In Flames - Condemned - текст песни, таба, видео

Регистрация Запомнить меня
Войти через:  Facebook Google Twitter Vk Yandex Mail.ru

In Flames - Condemned - текст песни, таба, видео

Печатать
Просмотров: 230
Уроки эстрадного вокала в Санкт-Петербурге
Авторы музыки: Jesper Strömblad, Anders Fridén, Björn Gelotte
Авторы текста: Jesper Strömblad, Anders Fridén, Björn Gelotte
C--------------------------------------------------------------------|
G--------------------------------------------------------------------|
D#-------------------------------------------------------------------|
A#---------------------------------8------8--------------------------|
F---------------------------5----------------------------------------|
A#-0-1-0--0-0--0-1-0--0-0-0---0-0----0-0-----------------------------|



C--------------------------------------------------------------------|
G--------------------------------------------------------------------|
D#-------------------------------------------------------------------|
A#--------------------------------8----------------------------------|
F---------------------------5-----------8----------------------------|
A#-0-1-0--0-0--0-1-0--0-0-0---0-0---0-0------------------------------|



C---------------------------------------------------------------------|
G---------------------------------------------------------------------|
D#--------------------------------------------------------------------|
A#--------------------------------8-----8-----------------------------|
F---------------------------5-----------------------------------------|
A#-0-1-0--0-0--0-1-0--0-0-0---0-0---0-0-------------------------------|



C----------------------------------------------------------------------|
G----------------------------------------------------------------------|
D#---------------------------------------------------------------------|
A#------------------------------------3-5------------------------------|
F---------------------------5-----1-3----------------------------------|
A#-0-1-0--0-0--0-1-0--0-0-0---0-0--------------------------------------|


C--------------------------------------------------------------------|
G--------------------------------------------------------------------|
D#-------------------------------------------------------------------|
A#---------------------------------8------8--------------------------|
F---------------------------5----------------------------------------|
A#-0-1-0--0-0--0-1-0--0-0-0---0-0----0-0-----------------------------|



C--------------------------------------------------------------------|
G--------------------------------------------------------------------|
D#-------------------------------------------------------------------|
A#--------------------------------8----------------------------------|
F---------------------------5-----------8----------------------------|
A#-0-1-0--0-0--0-1-0--0-0-0---0-0---0-0------------------------------|



C---------------------------------------------------------------------|
G---------------------------------------------------------------------|
D#--------------------------------------------------------------------|
A#--------------------------------8-----8-----------------------------|
F---------------------------5-----------------------------------------|
A#-0-1-0--0-0--0-1-0--0-0-0---0-0---0-0-------------------------------|


C---------------------------------------------------------------------|
G---------------------------------------------------------------------|
D#--------------------------------------------------------------------|
A#--------------------------------------------------------------------|
F---------------------10s0--------------------------------------------|
A#-0-1-0--0-0--0-1-0--10s0--------------------------------------------|


C--------------------------------------------------------------------|
G--------------------------------------------------------------------|
D#-------------------------------------------------------------------|
A#---------------------------------8------8--------------------------|
F---------------------------5----------------------------------------|
A#-0-1-0--0-0--0-1-0--0-0-0---0-0----0-0-----------------------------|



C--------------------------------------------------------------------|
G--------------------------------------------------------------------|
D#-------------------------------------------------------------------|
A#--------------------------------8----------------------------------|
F---------------------------5-----------8----------------------------|
A#-0-1-0--0-0--0-1-0--0-0-0---0-0---0-0------------------------------|



C---------------------------------------------------------------------|
G---------------------------------------------------------------------|
D#--------------------------------------------------------------------|
A#--------------------------------8-----8-----------------------------|
F---------------------------5-----------------------------------------|
A#-0-1-0--0-0--0-1-0--0-0-0---0-0---0-0-------------------------------|



C----------------------------------------------------------------------|
G----------------------------------------------------------------------|
D#---------------------------------------------------------------------|
A#------------------------------------0--------------------------------|
F---------------------------5-----1-3---0------------------------------|
A#-0-1-0--0-0--0-1-0--0-0-0---0-0--------------------------------------|




C----------------------------------------------------------------------|
G----------------------------------------------------------------------|
D#---------------------------------------------------------------------|
A#---------------------------------------------------------------------|
F--5-------8-7-10-------12-10-13-------8-7-888888-12-10----------------|
A#---0-0-0--------0-0-0----------0-0-0-----888888----------------------|



C------------------------------------------------------------------------|
G------------------------------------------------------------------------|
D#-----------------------------------------------------------------------|
A#-----------------------------------------------------------------------|
F--5-------8-7-10-------12-10-13-------8-7-8888888833333333888888883335~-|
A#---0-0-0--------0-0-0----------0-0-0-----8888888833333333888888883335~-|

C----------------------------------------------------------------------|
G----------------------------------------------------------------------|
D#---------------------------------------------------------------------|
A#---------------------------------------------------------------------|
F--5-------8-7-10-------12-10-13-------8-7-888888-12-10----------------|
A#---0-0-0--------0-0-0----------0-0-0-----888888----------------------|



C-----------------------------------------------------------------------|
G-----------------------------------------------------------------------|
D#----------------------------------------------------------------------|
A#----------------------------------------------------------------------|
F--5-------8-7-10-------12-10-13-------8-7------------------------------|
A#---0-0-0--------0-0-0----------0-0-0----------------------------------|



C----------------------------------------------------------------------|
G----------------------------------------------------------------------|
D#-9-9-9-10~--14-14-14-12-12-12-12-10-10---9-9-9-10~----9-10-14~-------|
A#---------------------------------------------------10----------------|
F----------------------------------------------------------------------|
A#---------------------------------------------------------------------|



C---------------------------------------------------------------------|
G--12--------12-------12----------------------------12-13-13-12-13-13-|
D#----12--------12-------12-14-11----14-11----14-11-------------------|
A#-------14--------14-------------12-------12-------------------------|
F---------------------------------------------------------------------|
A#--------------------------------------------------------------------|



C---------------------------------------------------------------------|
G--12-13-15-13-15-13-12-13-12-10-12-13--------------------------------|
D#--------------------------------------------------------------------|
A#--------------------------------------------------------------------|
F---------------------------------------------------------------------|
A#--------------------------------------------------------------------|



C---------------------------------------------------------------------|
G--12--------12-------12----------------------------12-13-13-12-13-13-|
D#----12--------12-------12-14-11----14-11----14-11-------------------|
A#-------14--------14-------------12-------12-------------------------|
F---------------------------------------------------------------------|
A#--------------------------------------------------------------------|



C---------------------------------------------------------------------|
G--12-13-15-13-15-13-12-13-12-10-12-13--------------------------------|
D#--------------------------------------------------------------------|
A#--------------------------------------------------------------------|
F---------------------------------------------------------------------|
A#--------------------------------------------------------------------|



C--------------------------------------------------------------------|
G--------------------------------------------------------------------|
D#-------------------------------------------------------------------|
A#---------------------------------8------8--------------------------|
F---------------------------5----------------------------------------|
A#-0-1-0--0-0--0-1-0--0-0-0---0-0----0-0-----------------------------|



C--------------------------------------------------------------------|
G--------------------------------------------------------------------|
D#-------------------------------------------------------------------|
A#--------------------------------8----------------------------------|
F---------------------------5-----------8----------------------------|
A#-0-1-0--0-0--0-1-0--0-0-0---0-0---0-0------------------------------|



C---------------------------------------------------------------------|
G---------------------------------------------------------------------|
D#--------------------------------------------------------------------|
A#--------------------------------8-----8-----------------------------|
F---------------------------5-----------------------------------------|
A#-0-1-0--0-0--0-1-0--0-0-0---0-0---0-0-------------------------------|



C----------------------------------------------------------------------|
G----------------------------------------------------------------------|
D#---------------------------------------------------------------------|
A#------------------------------------0--------------------------------|
F---------------------------5-----1-3---0------------------------------|
A#-0-1-0--0-0--0-1-0--0-0-0---0-0--------------------------------------|

C----------------------------------------------------------------------|
G----------------------------------------------------------------------|
D#---------------------------------------------------------------------|
A#---------------------------------------------------------------------|
F--5-------8-7-10-------12-10-13-------8-7-888888-12-10----------------|
A#---0-0-0--------0-0-0----------0-0-0-----888888----------------------|



C-----------------------------------------------------------------------|
G-----------------------------------------------------------------------|
D#----------------------------------------------------------------------|
A#----------------------------------------------------------------------|
F--5-------8-7-10-------12-10-13-------8-7------------------------------|
A#---0-0-0--------0-0-0----------0-0-0----------------------------------|



C----------------------------------------------------------------------|
G----------------------------------------------------------------------|
D#-9-9-9-10~--14-14-14-12-12-12-12-10-10---9-9-9-10~----9-10-14~-------|
A#---------------------------------------------------10----------------|
F----------------------------------------------------------------------|
A#---------------------------------------------------------------------|



C---------------------------------------------------------------------|
G--12--------12-------12----------------------------12-13-13-12-13-13-|
D#----12--------12-------12-14-11----14-11----14-11-------------------|
A#-------14--------14-------------12-------12-------------------------|
F---------------------------------------------------------------------|
A#--------------------------------------------------------------------|



C---------------------------------------------------------------------|
G--12-13-15-13-15-13-12-13-12-10-12-13--------------------------------|
D#--------------------------------------------------------------------|
A#--------------------------------------------------------------------|
F---------------------------------------------------------------------|
A#--------------------------------------------------------------------|



C---------------------------------------------------------------------|
G--12--------12-------12----------------------------12-13-13-12-13-13-|
D#----12--------12-------12-14-11----14-11----14-11-------------------|
A#-------14--------14-------------12-------12-------------------------|
F---------------------------------------------------------------------|
A#--------------------------------------------------------------------|



C---------------------------------------------------------------------|
G--12-13-15-13-15-13-12-13-12-10-12-13--------------------------------|
D#--------------------------------------------------------------------|
A#--------------------------------------------------------------------|
F---------------------------------------------------------------------|
A#--------------------------------------------------------------------|


 x4
C------------------------------------------------------------------------|
G------------------------------------------------------------------------|
D#-----10---9-7----7--7-10---9-7----7--0-0-9-0-0-10-0-9-----9-----10---9-|
A#-0-0----0-----10---------0-----10---------------------8-8---8-8----8---|
F------------------------------------------------------------------------|
A#-----------------------------------------------------------------------|




C
G
D#--------------------------------5-----5--------------------------------5-|
A#--------------------------3--------------------------------------3-------|
F--------------------------------------------------------------------------|
A#-3-3-3--3-3--3-3-3--3-3-3---3-3---3-3---3-3-3--3-3--3-3-3--3-3-3---3-3---|




C-------------------------------------------------------------------------|
G-------------------------------------------------------------------------|
D#------------------------------------------------------------------------|
A#-----5------------------------------------------------------------------|
F-------------------------------------------------------------------------|
A#-3-3--------------------------------------------------------------------|


C--------------------------------------------------------------------|
G--------------------------------------------------------------------|
D#-------------------------------------------------------------------|
A#---------------------------------8------8--------------------------|
F---------------------------5----------------------------------------|
A#-0-1-0--0-0--0-1-0--0-0-0---0-0----0-0-----------------------------|



C--------------------------------------------------------------------|
G--------------------------------------------------------------------|
D#-------------------------------------------------------------------|
A#---------------------------------8------8--------------------------|
F---------------------------5----------------------------------------|
A#-0-1-0--0-0--0-1-0--0-0-0---0-0----0-0-----------------------------|


C---------------------------------------------------------------------|
G---------------------------------------------------------------------|
D#--------------------------------------------------------------------|
A#--------------------------------------------------------------------|
F---------------------------------------------------------------------|
A#-00000--00000--88888--88888--1010101010--1010101010--55555--33333---|



C-------------------------------------------------------------------------|
G-------------------------------------------------------------------------|
D#----9-9-9-10~--14-14-14-12-12-12-12-10-10---9-9-9-10~----9-10-14~-------|
A#-0----------------------------------------------------10----------------|
F--0----------------------------------------------------------------------|
A#-0----------------------------------------------------------------------|



C---------------------------------------------------------------------|
G--12--------12-------12----------------------------12-13-13-12-13-13-|
D#----12--------12-------12-14-11----14-11----14-11-------------------|
A#-------14--------14-------------12-------12-------------------------|
F---------------------------------------------------------------------|
A#--------------------------------------------------------------------|



C---------------------------------------------------------------------|
G--12-13-15-13-15-13-12-13-12-10-12-13--------------------------------|
D#--------------------------------------------------------------------|
A#--------------------------------------------------------------------|
F---------------------------------------------------------------------|
A#--------------------------------------------------------------------|



C---------------------------------------------------------------------|
G--12--------12-------12----------------------------12-13-13-12-13-13-|
D#----12--------12-------12-14-11----14-11----14-11-------------------|
A#-------14--------14-------------12-------12-------------------------|
F---------------------------------------------------------------------|
A#--------------------------------------------------------------------|



C---------------------------------------------------------------------|
G--12-13-15-13-15-13-12-13-12-10-12-13--------------------------------|
D#--------------------------------------------------------------------|
A#--------------------------------------------------------------------|
F---------------------------------------------------------------------|
A#--------------------------------------------------------------------|



C--------------------------------------------------------------------|
G--------------------------------------------------------------------|
D#-------------------------------------------------------------------|
A#---------------------------------8------8--------------------------|
F---------------------------5----------------------------------------|
A#-0-1-0--0-0--0-1-0--0-0-0---0-0----0-0-----------------------------|



C--------------------------------------------------------------------|
G--------------------------------------------------------------------|
D#-------------------------------------------------------------------|
A#--------------------------------8----------------------------------|
F---------------------------5-----------8----------------------1--0--|
A#-0-1-0--0-0--0-1-0--0-0-0---0-0---0-0------------------------1--0--|
Добавлено: 20.04.2012
Другие материалы по этой песне:

Страница создана 20.04.2012
http://primanota.ru/in-flames/condemned-chords.htm
Привет, Гость.
Предлагаем пройти революционный курс по гитаре.
Подарок от PrimaNota.Ru, забирай!