PrimaNota.ru - самый крупный в мире бесплатный архив песенных текстов, аккордов, табулатур и нот


In Flames - Borders And Shading - текст песни, таба, видео

Регистрация Запомнить меня
Войти через:  Facebook Google Twitter Vk Yandex Mail.ru

In Flames - Borders And Shading - текст песни, таба, видео

Печатать
Просмотров: 206
Авторы: Jesper Strömblad, Anders Fridén, Björn Gelotte

----------------------------------------------------------------------------
			     borders & shading - In Flames
---------------------------------------------------------------------------
Tabbed by:War-ensemble
Email:ibanez_man@hotmail.com 

well i thought id try and tab this after i saw the other 
tab which is completely inaccurate, i know the intro and main riff is 100%
correct but the rest of it im not sure about i will find time to tab the rest
of the song some other time

 
Tuning: Drop A# (A# F A# D# G C)

Intro/Main riff guitar 1
C |-------------------|      |-------------------|         
G |-------------------|      |-------------------|
D#|-------------------|      |-------------------|
A#|-0-0-3-0-8-8-8-8-7-|      |-0-0-3-0-8-7-7-8---|
F |-0-0-3-0-8-8-8-8-7-|      |-0-0-3-0-8-7-7-8---|
A#|-0-0-3-0-8-8-8-8-7-|      |-0-0-3-0-8-7-7-8---|
                                                                                
guitar 2
C |-----------------------|   |---------------------|
G |-----------------------|   |---------------------|
D#|-7-7-107-15-15-15-15-14|   |-7-7-107-15-14-14-15-|
A#|-x-x-x-x-x-x-x-x-x-x-x-|   |-x-x-x-x-x--x--x--x--|
F |-5-5-8-5-13-13-13-13-12|   |-5-5-8-5-13-12-12-13-|
A#|-----------------------|   |---------------------|

riff2a:

  guitar1
C |---------------------------------|
G |---------------------------------|
D#|---------------------------------|
A#|-----4-5-5-------5-7-7-7-7-4-4-4-|
F |-00--------00--------------------|
A#|---------------------------------|

 guitar2                       
C |---------------------------------|
G |---------------------------------|
D#|---------------------------------|
A#|---------------------------------|
F |-----5-7-7------7-9-9-9-9-5-5-5--|
A#|-22---------22-------------------|
  ..         ..


riff2b:

  guitar1
C |------------------------------------|
G |------------------------------------|
D#|------------------------------------|
A#|-----7-9-9------9-10-10-10-10-7-7-7-|
F |-00---------00----------------------|
A#|------------------------------------|
                     
 guitar2                          
C |------------------------------------|
G |------------------------------------|
D#|------------------------------------|
A#|-----4-5-5------5-7--7--7--7--4-4-4-|
F |-22---------22----------------------|
A#|------------------------------------|
         


| /  slide up
| \  slide down
| h  hammer-on
| p  pull-off
| ~  vibrato
| +  harmonic
| x  Mute note
============================================================================
Добавлено: 14.11.2013
Другие материалы по этой песне:

Страница создана 26.04.2012
http://primanota.ru/in-flames/borders-and-shading-chords.htm
Привет, Гость.
Предлагаем пройти революционный курс по гитаре.
Подарок от PrimaNota.Ru, забирай!