PrimaNota.ru - самый крупный в мире бесплатный архив песенных текстов, аккордов, табулатур и нот


In Flames - Alias - текст песни, таба, бас-таба, видео

Регистрация Запомнить меня
Войти через:  Facebook Google Twitter Vk Yandex Mail.ru

In Flames - Alias - текст песни, таба, бас-таба, видео

Печатать
Просмотров: 335
Уроки эстрадного вокала в Санкт-Петербурге
Авторы музыки: Jesper Strömblad, Anders Fridén, Björn Gelotte
Авторы текста: Jesper Strömblad, Anders Fridén, Björn Gelotte
Tabbed by: Aniket Patni
Email: ani_k8@hotmail.com

Tuning: Drop A# Tuning (A#FA#D#GC) [Drop C tuned down 1 step]

Entire song is tabbed by ear, and done myself.
I Have pretty much done one guitars parts, or what the lead guitar would play at most 
of the song.
Ive tried to do it as perfectly as i can, but i might have stupid mistakes,
so if anyone has any corrections or wants to add to any part of the song,
please email me.

Im Very bad at tabbing so if you could not understand, im sorry, and please
let me know.

If Anyone converts this to GP, Awesome! but please credit me as well.

Intro : [Main Riff]
This part has the lead played on keyboards, but i'm doing it such that one guitar would 
it

Riff 1:
C |-----------------------------------------------------------------|
G |-----------------------------------------------------------------|
D#|-----------------------------------------------------------------|
A#|-----7h8p7----------------------7------7h8p7---------------------|
F |------------8---10---7---7-8-10----------------8---10---7--------|
A#|-0-0------0---0----0---0-----------0-0-------0---0----0---0------|

C |-----------------------------------------------------------------|
G |-----------------------------------------------------------------|
D#|-----------------------------------------------------------------|
A#|-8-7-------------------------------------------------------------|
F |-----10-8--------------------------------------------------------|
A#|-----------------------------------------------------------------|

RIff 2:
C |-----------------------------------------------------------------|
G |-----------------------------------------------------------------|
D#|-----------------------------------------------------------------|
A#|-----7h8p7----------------------7------7h8p7---------------------|
F |------------8---10---7---7-8-10----------------8---10---7--------|
A#|-8-8------8---8----8---8-----------8-8-------8---8----8---8------|

C |-----------------------------------------------------------------|
G |-----------------------------------------------------------------|
D#|-----------------------------------------------------------------|
A#|-8-7-------------------------------------------------------------|
F |-----10-8--------------------------------------------------------|
A#|-----------------------------------------------------------------|

This Riff is played both at the intro and at choruses in the following manner:
MAIN RIFF = Riff 1X2 - Riff 2 - Riff 1

if you have a keyboardist, then the keyboardist can play the exact same scale without 
bass notes
while guitars will play only the bass notes (all notes on low A# string) according to 
song.

Verse:

C |-----------------------------------------------------------------|
G |-----------------------------------------------------------------|
D#|-14-------14-------12----14-------14-------10---------12---------|  X2
A#|----------------------------------------------(slide)------------|
F |-12-12-12-12-12-12-10-10-12-12-12-12-12-12-8----------10---------|
A#|-----------------------------------------------------------------|

C |-----------------------------------------------------------------|
G |-----------------------------------------------------------------|
D#|-9-10-12-10-9-10--9-10-12-10-9-7---------------------------------|
A#|-----------------------------------------------------------------|
F |-7-8--10-8--7-8---7-8--10-8--7-5---------------------------------|
A#|-----------------------------------------------------------------|

Pre Chorus :
'don't believe the mask..'
C |-----------------------------------------------------------------|
G |-----------------------------------------------------------------|
D#|-7-9-10-12-14-12-10-9-7-9-10-12-14-12-10-------------------------|
A#|-----------------------------------------------------------------|
F |-5-7-8--10-12-10-8--7-5-7-8--10-12-10-8--------------------------|
A#|-----------------------------------------------------------------|
                                 (not sure) cant hear this part clearly

Post Chorus :
'i found secrets about, life untold'
C |-----------------------------------------------------------------|
G |-----------------------------------------------------------------|
D#|-----------------------------------------------------------------|
A#|-8-8-8-8-8-8-8-8-8-8-8-8-8-8-8-8-5-5-5-5-5-5-5-5-5-5-5-5-5-5-5-5-|
F |-8-8-8-8-8-8-8-8-8-8-8-8-8-8-8-8-5-5-5-5-5-5-5-5-5-5-5-5-5-5-5-5-|
A#|-8-8-8-8-8-8-8-8-8-8-8-8-8-8-8-8-5-5-5-5-5-5-5-5-5-5-5-5-5-5-5-5-|

Part2- 'let them take me far away'
C |-----------------------------------------------------------------|
G |-----------------------------------------------------------------|
D#|-----------------------------------------------------------------|
A#|-8-8-8-8-8-8-8-8-8-8-8-8-8-8-8-8-10-10-10-10-10-10-10-10-11-11-11|
F |-8-8-8-8-8-8-8-8-8-8-8-8-8-8-8-8-10-10-10-10-10-10-10-10-11-11-11|
A#|-8-8-8-8-8-8-8-8-8-8-8-8-8-8-8-8-10-10-10-10-10-10-10-10-11-11-11|
Cont.
C |-----------------------------------------------------------------|
G |-----------------------------------------------------------------|
D#|-----------------------------------------------------------------|
A#|-11-11-11-11-11-0------------------------------------------------|
F |-11-11-11-11-11-0-(sustain)--------------------------------------|
A#|-11-11-11-11-11-0------------------------------------------------|


Interlude :
(Acoustic part)
C |-----------------------------------------------------------------|
G |-----------------------------------------------------------------|
D#|-----------------------------------------------------------------|
A#|---7-----5--------------8------12---10-8-------------------------|
F |-----8-----7--------------10-------------------------------------|
A#|-0-----0-----0-0-0-0--0------0----0------------------------------|

Solo:

C |-----------------------5-6-5h6p5---5-----------------------------|
G |-6-6-5h6p5---5--5--6-8-----------8---8-6-8-6-5-6-5-------5-------|
D#|-----------7(quick)--------------------------------7-5-7---------|
A#|-----------------------------------------------------------------|
F |-----------------------------------------------------------------|
A#|-----------------------------------------------------------------|

Cont.
C |-----------------------------------------------------------------|
G |-6--6--5-6-------------10-8h10p8-6-8-----------------------------|
D#|-----------------------------------------------------------------|
A#|----(slide)8---7-7-7-5-------------------------------------------|
F |-----------------------------------------------------------------|
A#|-----------------------------------------------------------------|


So the overall progression of the song can be explained this way
Main Riff - Verse X2 - Pre Chorus - Main Riff - Post Chorus -
Verse X2 - Pre chorus - Main Riff - Post Chorus(+part2) - Interlude X4 - Solo X4 - V1 X 
- Pre Chorus - Main Riff - Post Chorus(+part2).
Добавлено: 09.08.2013
Другие материалы по этой песне:

Страница создана 28.04.2012
http://primanota.ru/in-flames/alias-chords.htm
Привет, Гость.
Предлагаем пройти революционный курс по гитаре.
Подарок от PrimaNota.Ru, забирай!