PrimaNota.ru - самый крупный в мире бесплатный архив песенных текстов, аккордов, табулатур и нот


In Extremo - Tanz Mit Mir - текст песни, таба, видео

Регистрация Запомнить меня
Войти через:  Facebook Google Twitter Vk Yandex Mail.ru

In Extremo - Tanz Mit Mir - текст песни, таба, видео

Печатать
Просмотров: 276
This tab explains how to play the verse and the part of the bagpipes.
Unfortunately i only found out parts... Better than nothing, just try, hope somebody 
out the rest of this great song!

verse (first part):

e-------------------------------------------------------------------|
b-------------------------------------------------------------------|
g-----2-2------2---------4-4--------4------------repeat-------------|
D--4------4-4---------2---------2-2---------------------------------|
A-------------------------------------------------------------------|
E-------------------------------------------------------------------|
Viel zu viel Gepäck ich trage...

e------------------------------------------------------------------|
b------------------------------------2-2---------------------------|
g-----------1-1-1-1---2-2-2----4-4---------------------------------|
D--4-4-4-4---------------------------------------------------------|
A------------------------------------------------------------------|
E------------------------------------------------------------------|
...Und breche mir die selben Glieder, die schon einmal gebrochen waren

e---------------------------------------------|
b-7---9----10---------------------------------|
g---------------6-------------6-----9---------|
D--------------------7---9-------------9------|
A---------------------------------------------|
E---------------------------------------------|
Komm, tanz mit mir, wo das Leben ist

e-----------------------------------------------------|
b--7-----9------10-10----7--------------------------9-|
g-----------------------------9----7-----9-----6------|
D-----------------------------------------------------|
A-----------------------------------------------------|
E-----------------------------------------------------|
Dort, wo jemand ist, der mich vermisst
Добавлено: 25.04.2012
Другие материалы по этой песне:
  • Аккорды и текст

Страница создана 25.04.2012
http://primanota.ru/in-extremo/tanz-mit-mir-chords.htm
Привет, Гость.
Предлагаем пройти революционный курс по гитаре.
Подарок от PrimaNota.Ru, забирай!