PrimaNota.ru - самый крупный в мире бесплатный архив песенных текстов, аккордов, табулатур и нот


In Dying Arms - Core Of My Existence - таба, видео

Регистрация Запомнить меня
Войти через:  Facebook Google Twitter Vk Yandex Mail.ru

In Dying Arms - Core Of My Existence - таба, видео

Печатать
Просмотров: 107
Song:         Core of My Exitence
Artist:       In Dying Arms
Tab Author:   Cord Rehn - jordansg57@gmail.com
Video Cover:  https://www.youtube.com/watch?v=BhXhN8IXQ5c
Disclaimer:   Figure the timings out yourself. This is how I like to play it.


##### Background Riff played all throughout
D#|--17-17-17-------------------------------------------17-17-17--------------------------------------------|
A#|-----------15-15-15-17-17-17-18-18-18-18-18-18-18-18----------17-17-17/18-18-18-18\17-17-18-18-13-13-15--|
F#|---------------------------------------------------------------------------------------------------------|
C#|---------------------------------------------------------------------------------------------------------|
G#|---------------------------------------------------------------------------------------------------------|
C#|---------------------------------------------------------------------------------------------------------|

D#|--17-17-17-------------------------------------------17-17-17-20-20--------------------------------------|
A#|-----------15-15-15-17-17-17-18-18-18-18-18-18-18-18----------------20-20-20-20-17-17-18-18-13-13-15-15~-|
F#|---------------------------------------------------------------------------------------------------------|
C#|---------------------------------------------------------------------------------------------------------|
G#|---------------------------------------------------------------------------------------------------------|
C#|---------------------------------------------------------------------------------------------------------|


###############################################
###############################################
###############################################


A) Verse (0:00 - 0:40)
D#|----------------------------------------------------------------------------------------------------|
A#|----------------------------------------------------------------------------------------------------|
F#|----------------------------------------------------------------------------------------------------|
C#|---------0-----------0-------------------3---------------------------------0-----------0------------|
G#|------------------------77778888-------------------------77778888-------------------------77778888--|
C#|-0000---0-0--0000---0-0----------3333---3-3--33337777--7-----------0000---0-0---0000--0-0-----------|

D#|----------------------------------------------------------------------------------------------------|
A#|----------------------------------------------------------------------------------------------------|
F#|----------------------------------------------------------------------------------------------------|
C#|----------------------------------------------------------------------------------------------------|
G#|------------------------------------------------------------------------77778888--------------------|
C#|-5555~--5555~-5~4~3333~--3333~-3~2~0~------------0000---0-0---0000---0-0----------------------------|


B) Verse (0:40 - 0:55)
D#|----------------------------------------------------------------------------------------------------|
A#|----------------------------------------------------------------------------------------------------|
F#|----------------------------------------------------------------------------------------------------|
C#|----------------------------------------------------------------------------(2x)--------------------|
G#|---------5b----------5b------5b-----------5b----------5b--77778888----------------------------------| 
C#|-0~--0000----0-0~--00----0000----0~---0000----0-0~--00----------------------------------------------|


C) Pre-Chorus (0:55 - 1:09)
D#|----------------------------------------------------------------------------------------------------|
A#|----------------------------------------------------------------------------------------------------|
F#|----------------------------------------------------------------------------------------------------|
C#|---------0------------0--------------------3--------------------------------------------------------|
G#|------------------------77778888----------------------------77778888--------------------------------|
C#|-0000---0-0---0000---0-0------------3333--3-3---33337777--7-----------------------------------------|

D#|----------------------------------------------------------------------------------------------------|
A#|----------------------------------------------------------------------------------------------------|
F#|----------------------------------------------------------------------------------------------------|
C#|---------0------------0-----------------------------7h8p7-------------------------------------------|
G#|-------------------------77778888------------------------8p7----------------------------------------|
C#|-0000---0-0----0000--0-0------------5-5-5-5-5-5-3-3---------10p0------------------------------------|
                                       * * * * * * * *
      
D) Chorus (1:09 - 1:36) - strum these as you see fit
D#|----------------------------------------------------------------------------------------------------|
A#|----------------------------------------------------------------------------------------------------|
F#|----------------------------------------------------------------------------------------------------|
C#|----------------------------------------------------------------------------------------------------|
G#|-12~---0-0-0-5~---3~-----0~------10~----12~---0-0-0-5~---3~-----0~----15~---------------------------|
C#|-12~---0-0-0-5~---3~-----0~------10~----12~---0-0-0-5~---3~-----0~----15~---------------------------|

D#|----------------------------------------------------------------------------------------------------|
A#|----------------------------------------------------------------------------------------------------|
F#|--10-10-10-10-10-10-10\9-----------------------------10-10-10-10-10-10-10\9-------------------------|
C#|---x--x--x--x--x--x--x\x---7h8p7----------------------x--x--x--x--x--x--x\x---7h8p7-----------------|
G#|---8--8--8--8--8--8--8\7--------8p7-----0~---10~------8--8--8--8--8--8--8\7--------8p7-----0~---10~-|
C#|-----------------------------------10p0-0~---10~--------------------------------------10p0-0~---10~-|


E) Verse (1:36 - 2:08)
D#|--------------------------------------------------------------------------------|------------|------|
A#|--------------------------------------------------------------------------------|---Play B---|------|
F#|-10~----------------------------------------------------------------------------|------------|------|
C#|-8~-------------0-------------0-----------------------0-------------0-----------|---Again----|--0~--|
G#|-8~-------------------------------77778888----------------------------77778888--|------------|--0~--|
C#|-8~-----0000---0-0----0000---0-0--------------0000---0-0----0000---0-0----------|------------|--0~--|


F) Breakdown (2:09 - 2:30)
D#|----------------------------------------------------------------------------------------------------|
A#|----------------------------------------------------------------------------------------------------|
F#|----------------------------------------------------------------------------------------------------|
C#|----------------------------------------------------------------------------------------------------|
G#|----------------------------------------------------------------------------------------------------|
C#|--00000-0-0-0-00000-00000-00000-0-0-0-000000000000--------------------------------------------------|

D#|----------------------------------------------------------------------------------------------------|
A#|----------------------------------------------------------------------------------------------------|
F#|----------------------------------------------------------------------------------------------------|
C#|----------------------------------------------------------------------------------------------------|
G#|----------------------------------------------------------------------------------------------------|
C#|-000-00000000--000000--1b-000-00000000--000000--0--000-00000000--000000--0--000--0000-00--0000-00-0-|
                                                   *

G) Bridge (2:30 - 3:01)
D#|----------------------------------------------------------------------------------------------------|
A#|----------------------------------------------------------------------------------------------------|
F#|----------------------------------------------------------------------------------------------------|
C#|---8~(x8)--7~(x4)--3~(x4)--5~(x16)----8~(x8)--10~(x4)--3~(x4)--5~(x16)------------------------------|
G#|---8~(x8)--7~(x4)--3~(x4)--5~(x16)----8~(x8)--10~(x4)--3~(x4)--5~(x16)------------------------------|
C#|----------------------------------------------------------------------------------------------------|

D#|----------------------------------------------------------------------------------------------------|
A#|----------------------------------------------------------------------------------------------------|
F#|--10~------9~------5~------7~--------10~------12~-------5~------7~----------------------------------|
C#|---x-(x8)--x-(x4)--x-(x4)--x-(x16)----x-(x8)---x-(x4)---x-(x4)--x-(x16)-----------------------------|
G#|---8~------7~------3~------5~---------8~------10~-------3~------5~----------------------------------|
C#|----------------------------------------------------------------------------------------------------|


H) Chorus - (3:01 - 3:30)
D#|--------------------|
A#|-----Play-D---------|
F#|--------------------|
C#|-----Again----------|
G#|--------------------|
C#|--------------------|


I) Verse (3:30 - 3:53)
D#|----------------------------------------------------------------<2>----------------------------|
A#|------------6~-----------------------------6~-------------------<2>----------------------------|
F#|------------9~-----------------------------9~-------------------<2>----------------------------|
C#|----------------------------------------------------------------<2>----------------------------|
G#|---------0----0-0-0-0~-0~-0~------------0----0-0-0-0~-0~-0~-----<2>----------------------------|
C#|-12\0----0----0-0-0-0~-0~-0~--1b-1b-----0----0-0-0-0~-0~-0~--1b-<2>----------------------------|
            *    * * * *  *  *             *    * * * *  *  *           

D#|-----------------------------------------------------------------------------------------------------|
A#|-----6~------------------------------6~--------------------------------------------------------------|
F#|-----9~------------------------------9~--------------------------------------------------------------|
C#|-----------------------------------------------------------------------------------------------------|
G#|--0----0-0-0-0~-0~-0~-------------0----0-0-0-0~-0~-0~------------------------------------------------|
C#|--0----0-0-0-0~-0~-0~--1b-1b------0----0-0-0-0~-0~-0~--1--1------------------------------------------|
     *    * * * *  *  *              *    * * * *  *  *   *  *             
            
D#|-----------------------------------------------------------------------------------------------------|
A#|-----------------------------------------------------------------------------------------------------|
F#|-----------------------------------------------------------------------------------------------------|
C#|-----------------------------------------------------------------------------------------------------|
G#|-----------------------------------------------------------------------------------------------------|
C#|--000000---000000---0000-00---000000---000000---000000---0000-00---000000----------------------------|

            
J) Outro (3:53 - END)
D#|-----------------------------------------------------------------------------------------------------|
A#|-----------------------------------------------------------------------------------------------------|
F#|-----------------------------------------------------------------------------------------------------|
C#|-----------------------------------------------------------------------------------------------------|
G#|--8~-0000----0000--0000----12~--0000----0000---------8~--0000----0000--0000----12~--0000----0000-----|
C#|--8~-0000----0000--0000----12~--0000----0000---------8~--0000----0000--0000----12~--0000----0000-----|

D#|-----------------------------------------------------------------------------------------------------|
A#|-----------------------------------------------------------------------------------------------------|
F#|-----------------------------------------------------------------------------------------------------|
C#|-----------------------------------------------------------------------------------------------------|
G#|--8~-8888~----8888~--8888~----12~--12121212~----12121212~--12121212~----8~-8888~----8888~--8888~-----|
C#|--8~-8888~----8888~--8888~----12~--12121212~----12121212~--12121212~----8~-8888~----8888~--8888~-----|
                               (12's, not 1's & 2's)

D#|-----------------------------------------------------------------------------------------------------|
A#|-----------------------------------------------------------------------------------------------------|
F#|-----------------------------------------------------------------------------------------------------|
C#|-------------------7h8p7----------------------0--0---------------------------------------------------|
G#|--12~-12121212~---------8p7------8~8~8~--------------------------------------------------------------|
C#|--12~-12121212~------------10p0--8~8~8~------0--0----------------------------------------------------|
Добавлено: 07.06.2016
Другие материалы по этой песне:
  • Аккорды и текст

Страница создана 07.06.2016
http://primanota.ru/in-dying-arms/core-of-my-existence-chords.htm
Привет, Гость.
Предлагаем пройти революционный курс по гитаре.
Подарок от PrimaNota.Ru, забирай!