PrimaNota.ru - самый крупный в мире бесплатный архив песенных текстов, аккордов, табулатур и нот


In Case Of Fire - Align The Planets - текст песни, таба, видео

Регистрация Запомнить меня
Войти через:  Facebook Google Twitter Vk Yandex Mail.ru

In Case Of Fire - Align The Planets - текст песни, таба, видео

Печатать
Просмотров: 111
From a great new Northern Irish band, In Case of Fire and the title track from 
their album, 'Align the Planets.'

eb|---------------------|------------------|------------------------|------------------|
Bb|---------------------|------------------|------------------------|------------------|
Gb|---------------------|------------------|------------------------|------------------|*6
Db|---------------------|------------------|------------------------|------------------|
Ab|---------------------|-6--6--6--7--7--7-|------------------------|------------------|
Db|-6--6--6--6--6--6--6-|------------------|-11--11--11--11--11--11-|-9--9--9--8--8--8-|


eb---------|
Bb---------| (0.39) *7
Gb---8-----|
Db---8-----|
Ab---6-----|
Db---------|


eb---------|---------|---------|---------|----------|---------|--------|------|
Bb---------|---------|---------|---------|----------|---------|--------|------|
Gb---------|---------|---------|---------|----------|---------|--------|------| 
Db--9-8----|-6--8----|-6--8----|-6--8----|--9--8----|-6--8----|-6--8---|-6666-|
Ab------9--|-------9-|------9--|------9--|-------9--|------9--|------9-|------|
Db---------|---------|---------|---------|----------|---------|--------|------|


At 47 seconds. 


eb------------------------|----------------------|
Bb------------------------|----------------------|  *6
Gb------------------------|----------------------|
Db---8---9---6---8---6--6-|-8---9---6---8---6-6--|
Ab------------------------|----------------------|
Db------------------------|----------------------|


eb----------
Bb---14----- (1.12) *7
Gb---13-----
Db---11-----
Ab----------
Db----------

And now we have to break, the fabled parade... (1.14)

eb----------|----------|---------|---------------|
Bb----------|----------|---------|---------------|
Gb----------|----------|---------|---------------|
Db--6(*8)---|--8(*8)---|--9(*8)--|---11(*8)------|
Ab--6-------|--8-------|--9------|---11----------|
Db--6-------|--8-------|--9------|---11----------|


eb----------|----------|---------|------------------------|
Bb----------|----------|---------|------------------------|
Gb----------|----------|---------|------------------------|
Db--6(*8)---|---8(*8)--|---9(*8)-|---13--11--9--11--9--8--|
Ab--6-------|---8------|---9-----|---13--11--9--11--9--8--|
Db--6-------|---8------|---9-----|---13--11--9--11--9--8--|

(Repeat that whole phrase twice)

Then at about 1.39

eb------------------------------|-------------------------------|
Bb------------------------------|-------------------------------|
Gb--------------------11--------|-------------------------------|
Db--9--------11-----------9-----|--------9---11---11(^1/4)------|
Ab-----11--------9--------------|----11-------------------------| *2
Db------------------------------|-------------------------------|



Then at 1:54

eb------------------------|     |--------------------------------------------|
Bb------------------------|  *3 |--------------------------------------------|
Gb------------------------|     |--------------------------------------------|
Db--6---9---6---8---6---8-|     |----6---9---6---8---6---11--11--11--11------|
Ab------------------------|     |--------------------------------------------|
Db------------------------|     |--------------------------------------------|


After this at 2:17

eb----------|
Bb---14-----| *7
Gb---13-----|
Db---11-----|
Ab----------|
Db----------|


And now we have to break, the fabled parade... (2.22)
eb-----------|-----------|----------|---------------|
Bb-----------|-----------|----------|---------------|
Gb-----------|-----------|----------|---------------|
Db--6(*8)----|--8(*8)----|--9(*8)---|---11(*8)------|
Ab--6--------|--8--------|--9-------|---11----------|
Db--6--------|--8--------|--9-------|---11----------|


eb-----------|-----------|----------|------------------------|
Bb-----------|-----------|----------|------------------------|
Gb-----------|-----------|----------|------------------------|
Db--6(*8)----|---8(*8)---|---9(*8)--|---13--11--9--11--9--8--|
Ab--6--------|---8-------|---9------|---13--11--9--11--9--8--|
Db--6--------|---8-------|---9------|---13--11--9--11--9--8--|

(Repeat that whole phrase twice)


After at 2.48
eb------------|-------------|--------------|-------------|
Bb------------|-------------|--------------|-------------|
Gb------------|-------------|--------------|-------------|
Db--6-6-6-6---|---6-6-6-6---|---6-6-6-6----|---6-6-6-6---|
Ab--6-6-6-6---|---6-6-6-6---|---6-6-6-6----|---6-6-6-6---|
Db--6-6-6-6---|---6-6-6-6---|---6-6-6-6----|---6-6-6-6---|


Then at 2.55

eb-------------------------------------|---------------------------------------| *2
Bb---7---------------------------------|--7------------------------------------|
Gb----------------9---8-------8--------|-----------------9----8----------------|
Db-------6----9-----------9-------9----|--------6----9------------9----8-------|
Ab-------------------------------------|------------------------------------9--|
Db-------------------------------------|---------------------------------------|


 
eb----------|---------|---------|-----------|     |----------|---------|----------|-------|
Bb----------|---------|---------|-----------|     |----------|---------|----------|-------|
Gb----------|---------|---------|-----------|     |----------|---------|----------|-------|
Db--9--8----|-6--8----|-6--8----|--6--8-----| *3  |--9--8----|-6--8----|--6--8----|-6666--|
Ab--------9-|-------9-|-------9-|--------9--|     |--------9-|-------9-|--------9-|-------|
Db----------|---------|---------|-----------|     |----------|---------|----------|-------|




After at 3.15

eb------------|-------------|--------------|-------------|
Bb------------|-------------|--------------|-------------|
Gb------------|-------------|--------------|-------------|
Db--6-6-6-6---|---6-6-6-6---|---6-6-6-6----|---6-6-6-6---|
Ab--6-6-6-6---|---6-6-6-6---|---6-6-6-6----|---6-6-6-6---|
Db--6-6-6-6---|---6-6-6-6---|---6-6-6-6----|---6-6-6-6---|



Then at 3.23-3.50
eb-------------------|------------------|-------------------|-------------|-------------|
Bb-------------------|------------------|-------------------|-------------|-------------|
Gb-------------------|------------------|-------------------|-------------|-------------|
Db--6--6--6--6--6--6-|-8--8--8--8--8--8-|-9--9--9--9--9--9--|-13--13--13--|--11--11--11-|
Ab-------------------|------------------|-------------------|-------------|-------------|
Db-------------------|------------------|-------------------|-------------|-------------|


Then at 3.57

eb----------------------|------------|-------------------------------|----------------|
Bb----------------------|------------|-------------------------------|----------------|
Gb----------------------|------------|-------------------------------|----------------|
Db---6666---6666---6666-|--13 13 13--|---14 14 14 14-----14 14 14 14-|----11 11 11 11-|
Ab---6666---6666---6666-|--13 13 13--|---14 14 14 14-----14 14 14 14-|----11 11 11 11-|
Db---6666---6666---6666-|--13 13 13--|---14 14 14 14-----14 14 14 14-|----11 11 11 11-|

----------------|
----------------|
----------------|
---11 11 11 11--|
---11 11 11 11--|
---11 11 11 11--|


eb----------------------|---------------------|-------|
Bb----------------------|---------------------|-------|
Gb----------------------|---------------------|-------|
Db----11 11 11 11-------|--9 9 9 9----9 9 9 9-|---6---|
Ab----11 11 11 11-------|--9 9 9 9----9 9 9 9-|---6---|
Db----11 11 11 11-------|--9 9 9 9----9 9 9 9-|---6---|

Thanks very much to the official forum at, www.aligntheplanets.co.uk for their help.

In Case of Fire official website, http://www.incaseoffire.co.uk/
Добавлено: 27.03.2012
Вам также может быть интересно:
Другие материалы по этой песне:
  • Аккорды и текст

Страница создана 27.03.2012
http://primanota.ru/in-case-of-fire/align-the-planets-chords.htm
Привет, Гость.
Предлагаем пройти революционный курс по гитаре.
Подарок от PrimaNota.Ru, забирай!