PrimaNota.ru - самый крупный в мире бесплатный архив песенных текстов, аккордов, табулатур и нот


Impure Wilhelmina - Summer - бас-таба, видео

Регистрация Запомнить меня
Войти через:  Facebook Google Twitter Vk Yandex Mail.ru

Impure Wilhelmina - Summer - бас-таба, видео

Печатать
Просмотров: 99
                        Impure Wilhelmina - Summer
                   2003 - I Can't Believe I Was Born In July
                         http://www.impurenet.com/
_____________________________________________________________________________

Tabbed By: Oleh Dark Grey
E-mail: darkgrey@ukr.net
Tuning: EADG

G|----------------|----------------|----------------|----------------|
D|----------------|------------5---|----------------|----------------|
A|-7--------------|-7/8\7----------|----------------|----------------|
E|----------------|-------0-3------|-7------7---7-5-|--------5-7-----|

G|----------------|----------------|----------------|----------------|
D|----------------|------------5---|----------------|----------------|
A|-7--------------|-7/8\7----------|----------------|----------------|
E|----------------|-------0-3------|-7------7---7-5-|----5---5-7-----|

G|----------------|----------------|----------------|----------------|
D|----------------|------------5---|----------------|----------------|
A|-7--------------|-7/8\7----------|----------------|------------5/6-|
E|----------------|-------0-3------|-7------7---7-5-|----5---5-7-----|

G|----------------|----------------|----------------|----------------|
D|----------------|------------5---|----------------|----------------|
A|-7--------------|-7/8\7----------|----------------|----------------|
E|----------------|-------0-3------|-7------7---7-5-|----5---5-7-----|
Добавлено: 03.07.2012
Другие материалы по этой песне:

Страница создана 23.04.2012
http://primanota.ru/impure-wilhelmina/summer-chords.htm
Привет, Гость.
Предлагаем пройти революционный курс по гитаре.
Подарок от PrimaNota.Ru, забирай!