PrimaNota.ru - самый крупный в мире бесплатный архив песенных текстов, аккордов, табулатур и нот


Impulse 21 - Birsu Bhanchu - таба, видео

Регистрация Запомнить меня
Войти через:  Facebook Google Twitter Vk Yandex Mail.ru

Impulse 21 - Birsu Bhanchu - таба, видео

Печатать
Просмотров: 47
e|-12----12---------------------|------------------------------------------------------|
b|-15b17---15b17-12-15---15/17--|-----------------------------15-----------------------|
g|------------------------------|---12--12-14-12----12-14bh16----16rb14-12-14v---12----|
d|------------------------------|/14--14---------/14--------------------------------14-|
a|------------------------------|------------------------------------------------------|
e|------------------------------|------------------------------------------------------|

e|-----------------------------------------|---------------------------------------------|
b|-15b17-12-15-------------12--------------|---------------------------------------------|
g|-------------14b16-12-14----14b16---14br-|---------------------------------------------|
d|-----------------------------------------|-12h14----12h14-12----12-14-12-14p12---------|
a|-----------------------------------------|-------14----------14----------------14v-12v-|
e|-----------------------------------------|---------------------------------------------|


Check this video for more help - https://www.youtube.com/watch?v=cCPc066riUQ
Добавлено: 03.01.2016
Другие материалы по этой песне:
  • Аккорды и текст

Страница создана 03.01.2016
http://primanota.ru/impulse-21/birsu-bhanchu-chords.htm
Привет, Гость.
Предлагаем пройти революционный курс по гитаре.
Подарок от PrimaNota.Ru, забирай!