PrimaNota.ru - самый крупный в мире бесплатный архив песенных текстов, аккордов, табулатур и нот


Impetigo - I Work For The Streetcleaner - текст песни, таба, видео

Регистрация Запомнить меня
Войти через:  Facebook Google Twitter Vk Yandex Mail.ru

Impetigo - I Work For The Streetcleaner - текст песни, таба, видео

Печатать
Просмотров: 149
Impetigo
I Work for the Streetcleaner from "Horror of the Zombies"
1992

Tuning  C#,F#,B,e,g#,c#

Riff 1

|--------------------------------------------|
|--------------------------------------------|
|--------------------------------------------|
|--------2-3-2---------2-3-2-0--------2-3-2--|
|-22-2-3------3-22-2-3---------22-2-3------3-|
|-00------------00-------------00------------|
  ..            ..            ..

|------------------------------------------|
|------------------------------------------|
|------------------------------------------|
|------------------------------------------|
|22-2-3-2-0--------------------------------|
|00---------3-2----------------------------|
 ..

Riff 2

|---------------------------------------------------|
|---------------------------------------------------|
|---------------------------------------------------|
|-----5-4------5-3----------------------------------|
|2222-3-2-2222-3-1----------------------------------|
|0000-----0000--------------------------------------|
 ....     ....


Riff 3

|---------------------------------------------------|
|---------------------------------------------------|
|---------------------------------------------------|
|-----3------3---------3------3---------------------|
|-----1------1-5\4-----1------1-5\4-----------------|
|0000---0000---3\2-0000--0000---3\2-----------------|
 ....   ....       ....  ....

Riff 4

|---------------------------------------------------|
|---------------------------------------------------|
|---------------------------------------------------|
|---------------------------------------------------|
|--22--33-------------------------------------------|
|00--11---------------------------------------------|
 ..  ..

Riff 5
|---------------------------------------------------|
|---------------------------------------------------|
|---------------------------------------------------|
|---------------------------------------------------|
|--11--00-------------------------------------------|
|00--11---------------------------------------------|
 ..  ..

Riff 6
|---------------------------------------------------|
|---------------------------------------------------|
|---------------------------------------------------|
|---------------------------------------------------|
|7\5/6\5/5\3/4-2------------------------------------|
|5\3/4\2/3\1/2-0------------------------------------|

Riff 7
|---------------------------------------------------|
|---------------------------------------------------|
|---------------------------------------------------|
|---------------------------------------------------|
|444424/722222222-----------------------------------|
|222202/500000000-----------------------------------|

Riff 9
|---------------------------------------------------|
|---------------------------------------------------|
|---------------------------------------------------|
|---------------------------------------------------|
|--1h2--2h3--2h3-543--------------------------------|
|00---00---00---------------------------------------|
 ..   ..   ..

Riff 10
|---------------------------------------------------|
|---------------------------------------------------|
|---------------------------------------------------|
|---------------------------------------------------|
|5-55-6-66-5-55-3-33-5-55-6-22223333----------------|
|3-33-4-44-3-33-1-11-3-33-4-------------------------|
   ..   ..   ..   ..   ..


Riff 11
|---------------------------------------------------|
|---------------------------------------------------|
|---------------------------------------------------|
|---------------------------------------------------|
|4-44-4-44-4-44-4-44-4-44-4-44-4-44-4---------------|
|2-22-2-22-2-22-2-22-2-22-2-22-2-22-2---------------|
   ..   ..   ..   ..   ..   ..   ..

|---------------------------------------------------|
|---------------------------------------------------|
|---------------------------------------------------|
|---------------------------------------------------|
|2-22-2-22-2-22-2-22-2-22-2-22-2-22-2---------------|
|0-00-0-00-0-00-0-00-0-00-0-00-0-00-0---------------|
   ..   ..   ..   ..   ..   ..   ..

Riff 12

|---------------------------------------------------|
|---------------------------------------------------|
|---------------------------------------------------|
|-------2-3-2---------------------------------------|
|22-2-3------3--------------------------------------|
|00-------------------------------------------------|
 ..

Lead

|---------------------------------------------------|
|-------5-6-5---------------------------------------|
|---4-5------5--------------------------------------|
|---------------Repeat twice then-------------------|
|22-------------------------------------------------|
|00-------------------------------------------------|
 ..

|---------12-13-12----------------------------------|
|---12-13----------13-------------------------------|
|---------------------------------------------------|
|----------------------Repeat Twice-----------------|
|22-------------------------------------------------|
|00-------------------------------------------------|

Play all riffs again and the song ends with riff six played slowly.
Добавлено: 12.08.2015
Другие материалы по этой песне:
  • Аккорды и текст

Страница создана 09.05.2012
http://primanota.ru/impetigo/i-work-for-the-streetcleaner-chords.htm
Привет, Гость.
Предлагаем пройти революционный курс по гитаре.
Подарок от PrimaNota.Ru, забирай!