PrimaNota.ru - самый крупный в мире бесплатный архив песенных текстов, аккордов, табулатур и нот


Imperial - We Sail At Dawn - таба, видео

Регистрация Запомнить меня
Войти через:  Facebook Google Twitter Vk Yandex Mail.ru

Imperial - We Sail At Dawn - таба, видео

Печатать
Просмотров: 139
Imperial
We Sail At Dawn

(C,G,C,F,A,D)

|-------------------------------------------------|
|o------------------------------------------------|
|-------------------------------------------------|
|--------------------12-10-8----------------------|
|o---12-8-10--8--7h8p7--------12-10-8-------------|
|-00-00----00-0---------------------7h8p7--5h7p5--|


|--------------------------------------------|
|--------------------------------------------|o
|--------------------------------------------|
|--------------------12-10-8--------8p7------|   x4
|---12-8-10--8--7h8p7--------12-10-88p7------|o
|-00-00----00-0---------------------8p7------|

|-----------------------------------------|
|-----------------------------------------|
|-----------------------------------------|
|0~---------------------------------------|
|0~---------------------------------------|
|0~---------------------------------------|

|------------------------|
|------------------------|
|------------------------|
|------------------------|  x4
|0--000-000-0--0-232-3*--|
|0--000-000-0--0-232-----|


repeat verse x2


chours
                        |1st&3rd time|        |2nd&4th|
|------------------------------------------------------|
|------------------------------------------------------|
|-7~--10~--7~--10~---------15----12-----------15-17-12-|
|-x---x----x---x----((strum)x----x------------x--x--x--|
|-5~--8~---5~--8~----------13----10-----------13-15-10-|
|------------------------------------------------------|

3rd verse
|---------------------------------------------------------------|
|---------------------------------------------------------------|
|---------------------------------------------------------------|
|-12-10-8-------------12-10-8--14-------------------------------|
|---------12-10-8-7h8p7-----------\12-10-7h8p7------------------|
|---------------------------------------------------------------|


|-----------------------------------------------------------------|
|-----------------------------------------------------------------|
|-----------------------------------------------------------------|
|-12-10-8-------------12-10-8--14------------------------ x2 or 4-|
|---------12-10-8-7h8p7-----------12-----7h8p7--------------------|
|-----------------------------------------------------------------|

THEN

|----------------------------------------------------------------------|
|----------------------------------------------------------------------|
|----------------------------------------------------------------------|
|--12-14-15-17-15-14h15p14---12-14-15-17-15-14\--12-10-8---------------|
|--------------------------------------------------------12-10-8-7h8p7-|
|----------------------------------------------------------------------|


then break down
               then repeat but let the opens ring
|------------------------|
|------------------------|
|------------------------|
|------------------------|
|0--000-000-0--0-232-3*--|
|0--000-000-0--0-232-----|

then chours
and END wooh

my first tab
im 98% sure on the 3rd verse and 99% on the chours so thats
a good judge ment
Добавлено: 22.03.2012
Другие материалы по этой песне:

Страница создана 02.03.2012
http://primanota.ru/imperial/we-sail-at-dawn-chords.htm
Привет, Гость.
Предлагаем пройти революционный курс по гитаре.
Подарок от PrimaNota.Ru, забирай!