PrimaNota.ru - самый крупный в мире бесплатный архив песенных текстов, аккордов, табулатур и нот


Impending Doom - Age Of Antichrist - таба, видео

Регистрация Запомнить меня
Войти через:  Facebook Google Twitter Vk Yandex Mail.ru

Impending Doom - Age Of Antichrist - таба, видео

Печатать
Просмотров: 139
Note> I didnt tab the solo.

Intro

e|-----------------------------------------|
B|-----------------------------------------|
G|-----------------------------------------|
D|-----------------------------------------|
A|-22222222222222222222222222222222222222--|
E|-00000000000000000000000000000000000000--|


Riff1

e|-----------------------------------------------------|
B|-----------------------------------------------------|
G|-----------------------------------------------------|
D|-----------------------------------------------------|
A|-----------------5-4-5-8-7-----------------5-4-5-3-3-|
E|-000-000-000-000-3-2-3-6-5-000-000-000-000-3-2-3-1-1-|

Riff2
                                                                  fill
e|---------------------------------------------------------------||---|
B|---------------------------------------------------------------||---|
G|---------------------------------------------------------------||---|
D|---------------------------------------------------------------||-9-|
A|-7/9-------------------7/9-------7/9---7/9-------------5-5-4-4-||-9-|
E|-5/7-7-7-7-7-7-7-7-7-7-5/7-7-7-7-5/7-7-5/7-7-7-7-7-7-7-3-3-2-2-||-7-|

Riff1 
Riff2 with fill

Riff3

e|---------------------------------------------------------------------|
B|---------------------------------------------------------------------|
G|---------------------------------------------------------------------|
D|-----0--------0-------0-------0---------4-------4-------4-------4----|
A|---5---5----5---5---5---5---5---5-----4---4---4---4---4---4---4---4--|
E|-7--------7-------7-------7---------6-------6-------6-------6--------|

Riff4

e|-------------------------------------------------|
B|-------------------------------------------------|
G|-------------------------------------------------|
D|-------------------------------------------------|
A|-5-555-5-5-5-4-444-4-4-4-7-777-7-7-7-6-666-6-6-6-|
E|-7-777-7-7-7-6-666-6-6-6-9-999-9-9-9-8-888-8-8-8-|

Riff2

Riff5

e|---------------------------------------|
B|---------------------------------------|
G|---------------------------------------|
D|---------------------------------------|
A|---------------------------------------|
E|-7777777776666666669999999998888888888-|

End with 

e|---|
B|---|
G|---|
D|-9-|
A|-9-|
E|-7-|


Добавлено: 19.07.2012
Другие материалы по этой песне:
  • Аккорды и текст

Страница создана 19.07.2012
http://primanota.ru/impending-doom/age-of-antichrist-chords.htm
Привет, Гость.
Предлагаем пройти революционный курс по гитаре.
Подарок от PrimaNota.Ru, забирай!