PrimaNota.ru - самый крупный в мире бесплатный архив песенных текстов, аккордов, табулатур и нот


Impaled - The Hippocritic Oath - таба, видео

Регистрация Запомнить меня
Войти через:  Facebook Google Twitter Vk Yandex Mail.ru

Impaled - The Hippocritic Oath - таба, видео

Печатать
Просмотров: 90
Уроки эстрадного вокала в Санкт-Петербурге
Band: Impaled
Album: Mondo Medicale
Song: The Hippocratic Oath



Code:
. - palm mute           / - slide up to
\ - slide down to       x – Staccato
h - hammer on           p - pull off
, - slight palm mute    () - ghost note, sustained note
" - tremolo note        <> - Trill
L – left channel only   R – right channel only
* - see comment

Suffixes for bend
f - full bend       h - half bend
q - quarter bend    t - tap bend
^ - Hold bend       r - release bend
~ - vibrato bend

Suffixes for harmonic
ph - pinched harmonic   n – natural/artificial harmonic

Tuning B E A D F# B

Piano intro [0:00 - 0:13]

A                                  Guitar 1
|-----------------------------------------|
|-15----16-14-15----15----16-14-15--------|
|----13----------14----13----------14-15--|
|-----------------------------------------|
|-----------------------------------------|
|-----------------------------------------|


Guitar 2 plays the following chords (one chord per instance of A)

A'                   Guitar 2
|------|------|------|------|
|-7----|-8----|-7----|-6----|
|-5----|-8----|-7----|-6----|
|-5----|-6----|-5----|-4----|


Repeat A w/A' x 2


Fill 1
|------|
|-5----|
|-5----|
|-3----|
  .

B                     Both guitars
|--------------------------------|
|--------------------------------|
|-5-------5-----5-------5---6----|
|-5-0-3-4-5-0-0-5-0-0-0-5-0-6-0--|
    . . .   . .   . . .   .   .
 
Repeat B x 3


C                                               Guitar 1
|------------------------------------------------------|
|-------------5-7-8-f-r-7-8---7-h-r-5-7---6-h-r--------|
|-/8--7-5-7-8-----------------------------------8-6----|
|------------------------------------------------------|
|
|                                               Guitar 2
|------------------------------------------------------|
|-7---------------8-----------7-----------6------------|
|-5---------------8-----------7-----------6------------|
|-5---------------6-----------5-----------4------------|

                                                Guitar 1
|------------------------------------------------------|
|-------------5-7-8-f-r-7-8---7-h-r-5-7---6-h-r--------|
|-/8--7-5-7-8-----------------------------------8-6----|
|------------------------------------------------------|
|
|                                               Guitar 2
|------------------------------------------------------|         
|-7---------------8-----------7-----------6------6-----|
|-5---------------8-----------7-----------6----6---6---|
|-5---------------6-----------5-----------4--4---------|


Repeat C
Repeat B x 4

D1                                            Guitar 1
|----------------------------------------------------|
|-/7-----------8-f-r-7-8-7---9--11--12---11--8-------|
|-------8-7-5----------------------------------8-----|
|----------------------------------------------------|
|
|                                             Guitar 2
|----------------------------------------------------|
|-7------------8-------------9-----------8-----------|
|-5------------8-------------9-----------8-----------|
|-5------------6-------------7-----------6-----------|


D2                                            Guitar 1
|----------------------------------------------------|
|-/7-----------8-f-r-7-8-7---9--11--12---11--8-------|
|-------8-7-5----------------------------------8-----|
|----------------------------------------------------|
|
|                                             Guitar 2
|----------------------------------------------------|
|-7------------8-------------9-----------6-----------|
|-5------------8-------------9-----------6-----------|
|-5------------6-------------7-----------4-----------|


Repeat D1


Fill 2                            Guitar 1
|----------------------------------------|
|-/7-----------8-f-r-7-8-7---9--11--12---|
|-------8-7-5----------------------------|
|----------------------------------------|
|
|                                 Guitar 2
|----------------------------------------|
|-7------------8-------------9-----------|
|-5------------8-------------9-----------|
|-5------------6-------------7-----------|


E           Play 7 times
|----------------------|
|-----7---4-----7---4--|
|-----5---2-----5---2--|
|-0-0---0---0-0---0----|
  . .   .   . .   .   


Fill 3              *
|----------------------|
|-----7---4-----7---4--|
|-----5---2-----5---2--|
|-0-0---0---0-0---0-2--|
  . .   .   . .   .   

* hold note
Добавлено: 19.10.2013
Другие материалы по этой песне:
  • Аккорды и текст

Страница создана 02.09.2013
http://primanota.ru/impaled/the-hippocritic-oath-chords.htm
Привет, Гость.
Предлагаем пройти революционный курс по гитаре.
Подарок от PrimaNota.Ru, забирай!