PrimaNota.ru - самый крупный в мире бесплатный архив песенных текстов, аккордов, табулатур и нот


Impaled Nazarene - The Horny And The Horned - текст песни, таба, видео

Регистрация Запомнить меня
Войти через:  Facebook Google Twitter Vk Yandex Mail.ru

Impaled Nazarene - The Horny And The Horned - текст песни, таба, видео

Печатать
Просмотров: 129
The Horney and the Horned
Impaled Nazarene

Tab by Unlight W.
unlight.warbringer@yahoo.com


E|-------------------------------------------------------------------------------|
B|----------------------------12--10---------------------------------------------|
G|----4--/--9-------------9-9-----------12--11-------------11----10-----11-9-----|
D|------------------------------------------12------------12--------12-----------|
A|-------------------------------------------------------------------------------|
E|-------------------------------------------------------------------------------|

E|-------------------------------------------------------------------------------|
B|----------------12--10---------------------------------------------------------|
G|--------9-9-----------12--11-------------11-----------------------9------------|
D|------------------------------12-----------12--10--------10--12----------------|
A|-------------------------------------------------------------------------------|
E|-------------------------------------------------------------------------------|
Добавлено: 11.08.2013
Другие материалы по этой песне:
  • Аккорды и текст

Страница создана 13.06.2012
http://primanota.ru/impaled-nazarene/the-horny-and-the-horned-chords.htm
Привет, Гость.
Предлагаем пройти революционный курс по гитаре.
Подарок от PrimaNota.Ru, забирай!